Cifras e Tablaturas
Xy

Xy

One Last Stand

Cifras Cancelar Versão de Impressão Print

Xy - One Last Stand

Tom: D

  • 0:00 / 0:00
  			
Intro: 

   D 
e|--------------------------------------|--------------------------------------| 
B|--------------------------------------|--------------------------------------| 
G|--------------------------------------|--------------------------------------|  
D|--------------------------------------|--------------------------------------| 
A|--------------------------------------|--------------------------------------| 
D|-12---0-12---0-12~----0-0-13-13-13-13-|-12---0-12---0-12~----0-0-15-15-15-15-| 
 |                      P.M.___________                        P.M.___________ 
 | 
e|--------------------------------------|--------------------------------------| 
B|--------------------------------------|--------------------------------------| 
G|--------------------------------------|--------------------------------------|  
D|--------------------------------------|--------------------------------------| 
A|--------------------------------------|--------------------------------------| 
D|--------------------------------------|--------------------------------------|                   


e|--------------------------------------|--------------------------------------| 
B|--------------------------------------|--------------------------------------| 
G|--------------------------------------|--------------------------------------|  
D|--------------------------------------|--------------------------------------| 
A|--------------------------------------|--------------------------------------| 
D|-12---0-12---0-12~----0-0-13-13-13-13-|-18---0-18---0-18~----0-0-19-19-19-19-| 
 |                      P.M.___________                        P.M.___________ 
 | 
e|--------------------------------------|--------------------------------------| 
B|--------------------------------------|--------------------------------------| 
G|--------------------------------------|--------------------------------------|  
D|--------------------------------------|--------------------------------------| 
A|--------------------------------------|--------------------------------------| 
D|--------------------------------------|--------------------------------------|  



e|--------------------------------------|--------------------------------------| 
B|--------------------------------------|--------------------------------------| 
G|--------------------------------------|--------------------------------------|  
D|--------------------------------------|--------------------------------------| 
A|--------------------------------------|--------------------------------------| 
D|-12---0-12---0-12~----0-0-13-13-13-13-|-12---0-12---0-12~----0-0-15-15-15-15-| 
 |                       
 | 
e|--------------------------------------|--------------------------------------| 
B|--------------------------------------|--------------------------------------| 
G|--------------------------------------|--------------------------------------|  
D|-12---0-12---0-12~----0-0-13-13-13-13-|-12---0-12---0-12~----0-0-15-15-15-15-| 
A|--------------------------------------|--------------------------------------| 
D|--------------------------------------|--------------------------------------|                   


e|--------------------------------------|--------------------------------------| 
B|--------------------------------------|--------------------------------------| 
G|--------------------------------------|--------------------------------------|  
D|--------------------------------------|--------------------------------------| 
A|--------------------------------------|--------------------------------------| 
D|-12---0-12---0-12~----0-0-13-13-13-13-|-18---0-18---0-18~----0-0-19-19-19-19-| 
 |                       
 | 
e|--------------------------------------|--------------------------------------| 
B|--------------------------------------|--------------------------------------| 
G|--------------------------------------|--------------------------------------|  
D|-12---0-12---0-12~----0-0-13-13-13-13-|-18---0-18---0-18~----0-0-19-19-19-19-| 
A|--------------------------------------|--------------------------------------| 
D|--------------------------------------|--------------------------------------| 



Hook: x2  (2 guitars play same riff) 

   D 
e|---------------------------------|------------------------------------| 
B|---------------------------------|------------------------------------| 
G|---------------------------------|------------------------------------|  
D|---------------------------------|------------------------------------| 
A|-0-----0-----1---0-----0---------|-0-----0-----1----------------------| 
D|-0-0-0-0-0-0-1---0-0-0-0-0-0-3h6-|-0-0-0-0-0-0-1--/12p0-0/12p0-0/12p0-| 
     P.M.  P.M.      P.M.  P.M.        P.M.  P.M.       P.M.   P.M. 

e|---------------------------------|------------------------------------| 
B|---------------------------------|------------------------------------| 
G|---------------------------------|------------------------------------|  
D|---------------------------------|------------------------------------| 
A|-0-----0-----1---0-----0---------|-0-----0-----1-------------3--2--1--| 
D|-0-0-0-0-0-0-1---0-0-0-0-000-3h6-|-0-0-0-0-0-0-1p0/7~--------3--2--1--| 
     P.M.  P.M.      P.M.  P.M.        P.M.  P.M.              P.M.____ 


Verse: (guitar 1: same riff through the whole verse) 

e|----------------------------------------|----------------------------------------| 
B|----------------------------------------|----------------------------------------| 
G|----------------------------------------|----------------------------------------|  
D|----------------------------------------|----------------------------------------| 
A|----------------------------------------|----------------------------------------| 
D|-12-0-0-12-0-0-12-0-0-0-0-0-13-13-13-13-|-12-0-0-12-0-0-12-0-0-0-0-0-15-15-15-15-| 

e|----------------------------------------|----------------------------------------| 
B|----------------------------------------|----------------------------------------| 
G|----------------------------------------|----------------------------------------|  
D|----------------------------------------|----------------------------------------| 
A|----------------------------------------|----------------------------------------| 
D|-12-0-0-12-0-0-12-0-0-0-0-0-13-13-13-13-|-18-0-0-18-0-0-18-0-0-0-0-0-19-19-19-19-| 


(in 2nd part of the verse, guitar 2 plays:) 
"Feel the love..." 

e|----------------------------------------|----------------------------------------| 
B|----------------------------------------|----------------------------------------| 
G|----------------------------------------|----------------------------------------|  
D|----------------------------------------|----------------------------------------| 
A|-0---0-0---0-0--------------------------|-----0-0---0-0--------------------------| 
D|-0---0-0---0-0--------------------------|-----0-0---0-0--------------------------| 
   P.M._________                                P.M._____ 

e|----------------------------------------|----------------------------------------| 
B|----------------------------------------|----------------------------------------| 
G|----------------------------------------|----------------------------------------|  
D|----------------------------------------|----------------------------------------| 
A|-0---0-0---0-0--------------------------|-----0-0---0-0------0------0-0-1--------| 
D|-0---0-0---0-0--------------------------|-----0-0---0-0------0------0-0-1--------| 
   P.M._________                                P.M._____________________         


e|----------------------------------------|----------------------------------------| 
B|----------------------------------------|----------------------------------------| 
G|----------------------------------------|----------------------------------------|  
D|----------------------------------------|----------------------------------------| 
A|-----0-0---0-0--------------------------|-----0-0---0-0--------------------------| 
D|-----0-0---0-0--------------------------|-----0-0---0-0--------------------------| 
       P.M._____                                P.M._____ 

e|----------------------------------------|----------------------------------------| 
B|----------------------------------------|----------------------------------------| 
G|----------------------------------------|----------------------------------------|  
D|----------------------------------------|----------------------------------------| 
A|-0---0-0---0-0--------------------------|-----0-0---0-0------0------0-0-1--------| 
D|-0---0-0---0-0--------------------------|-----0-0---0-0------0------0-0-1--------| 
   P.M._________                                P.M._____________________  


Hook x2 

Chorus: 

e|---------------------------------|---------------------------------| 
B|---------------------------------|---------------------------------| 
G|---------------------------------|---------------------------------|  
D|-0-------------------------------|--------------------/8---7---5---| 
A|-0-------------------------------|---------------------------------| 
D|-0-------------------------------|---------------------------------| 

(2 guitars play same riff) "I'm going my way..."  

e|---------------------------------|---------------------------------| 
B|-6--------------6--------------6-|-----------------5---------------| 
G|-7--------------7--------------7-|-----------------5---------------|  
D|-7--------------7--------------7-|-----7---7-------7---------------| 
A|-5-------------------------------|-----0---0-------0---------------| 
D|-0-------------------------------|---------------------------------| 


e|---------------------------------|---------------------------------| 
B|---------------------------------|-------------------------5-------| 
G|-3--------------3--------------3-|/5---5---5-------------------5---|  
D|-3--------------3--------------3-|/5---5---5-----------5-----------| 
A|-1--------------1--------------1-|/3---3---3-------0---------------| 
D|---------------------------------|---------------------------------| 


e|---------------------------------|---------------------------------| 
B|-6--------------6--------------6-|-----------------5---------------| 
G|-7--------------7--------------7-|-----------------5---------------|  
D|-7--------------7--------------7-|-----7---7-------7---------------| 
A|-5-------------------------------|-----0---0-------0---------------| 
D|-0-------------------------------|---------------------------------| 


e|---------------------------------|---------------------------------| 
B|---------------------------------|---------------------------------| 
G|-3--------------3--------------3-|---------------------------------|  
D|-3--------------3--------------3-|---------7---8-------------------| 
A|-1--------------1--------------1-|-------------------------7---8---| 
D|---------------------------------|-5---5-----------7---7-----------| 
                                     P.M._           P.M._ 


guitar 1: "I'm climbing the stairs..." 

e|---------------------------------|---------------------------------| 
B|---------------------------------|---------------------------------| 
G|---------------------------------|---------------------------------|  
D|-------------10--------------7---|---------------------------------| 
A|-----7-h-8-------8-p-7-----------|-----10--8---7-------------------| 
D|-0-----------------------0-------|-----------------10--------------| 


e|---------------------------------|---------------------------------| 
B|---------------------------------|---------------------------------| 
G|---------------------------------|---------------------------------|  
D|-------------10--------------8---|-----7---------------------------| 
A|-----7-h-8-------8-p-7-----------|---------10--8---7---------------| 
D|-8-----------------------8-------|---------------------10--8---7---| 

e|---------------------------------|---------------------------------| 
B|---------------------------------|---------------------------------| 
G|---------------------------------|---------------------------------|  
D|-------------10--------------7---|---------------------------------| 
A|-----7-h-8-------8-p-7-----------|-----10--8---7-------------------| 
D|-0-----------------------0-------|-----------------10--------------| 


e|---------------------------------|---------------------------------| 
B|---------------------------------|---------------------------------| 
G|---------------------------------|---------------------------------|  
D|---------------------------------|-----------------7-b-8---r-------| 
A|---------------------7-h-8-------|-----7-h-8-----------------------| 
D|-8---------------------------5---|-------------7-------------------| 


Intro 

Verse (the guitar riff that comes in is from the "Hook") 

Chorus 

Intro 

Hook x2 

Bridge: (2 guitars play same riff) 

e|---------------------------------|---------------------------------| 
B|---------------------------------|---------------------------------| 
G|---------------------------------|---------------------------------|  
D|---------------------------------|---------------------------------| 
A|---------------------------------|---------------------------------| 
D|-1p0-0-0-1p0-0-0-0-0-1p0-0-0-1p0-|-1p0-0-0-1p0-0-0-0-0-1p0-0-0-3h6-| 
     P.M._   _________   _____   __    _____   _________   _____ 

e|---------------------------------|---------------------------------| 
B|---------------------------------|---------------------------------| 
G|---------------------------------|---------------------------------|  
D|---------------------------------|---------------------------------| 
A|---------------------------------|---------------------------------| 
D|-1p0-0-0-1p0-0-0-0-0-1p0-0-0-1p0-|-1p0-0-0-1p0-0-0-3h6-0-0-3h6-0-0-| 
     P.M._   _________   _____   __    _____   _____     ___     ___ 


lead guitar adds: x2 

e|-16------16-----------16---------|-16------16-----------16---------| 
B|b20-----b20----------b20---------|b20-----b20----------b20---------| 
G|---------------------------------|---------------------------------|  
D|---------------------------------|---------------------------------| 
A|---------------------------------|---------------------------------| 
D|---------------------------------|---------------------------------| 


Chorus 


+ new guitar lead part when singing "One battle, one last stand..." the 2nd time. 

e|-----12----12----12----12----12--|-----13-----13-----13-----13--------| 
B|---------------------------------|----------------------------10b11r--| 
G|-9-10--9-10--9-10--9-10--9-10--9-|10-12--10-12--10-12--10-12----------|  
D|---------------------------------|------------------------------------| 
A|---------------------------------|------------------------------------| 
D|---------------------------------|------------------------------------| 

e|-----12----12----12----12----12--|-----13-----13-----13-12-10-------------| 
B|---------------------------------|---------------------------13-11-10-----| 
G|-9-10--9-10--9-10--9-10--9-10--9-|10-12--10-12--10-12----------------12-10|  
D|---------------------------------|----------------------------------------| 
A|---------------------------------|----------------------------------------| 
D|---------------------------------|----------------------------------------| 



Outro: (2 guitars play same riff) 

e|---------------------------------|---------------------------------| 
B|---------------------------------|---------------------------------| 
G|---------------------------------|---------------------------------|  
D|---------------------------------|---------------------------------| 
A|-0---0-0---0-0-------------------|-----0-0---0-0------0-0-1--------| 
D|-0---0-0---0-0-------------------|-----0-0---0-0------0-0-1--------| 
   P.M._________                         P.M.______________        

e|---------------------------------|---------------------------------| 
B|---------------------------------|---------------------------------| 
G|---------------------------------|---------------------------------|  
D|---------------------------------|---------------------------------| 
A|-----0-0---0-0-------------------|-----0-0---0-0-------------------| 
D|-----0-0---0-0-------------------|-----0-0---0-0---3-3-3-3-1-1-1-1-| 
       P.M._____                         P.M._______________________  

e|---------------------------------|---------------------------------| 
B|---------------------------------|---------------------------------| 
G|---------------------------------|---------------------------------|  
D|---------------------------------|---------------------------------| 
A|-0---0-0---0-0-------------------|-----0-0---0-0------0-0-1--------| 
D|-0---0-0---0-0-------------------|-----0-0---0-0------0-0-1--------| 
   P.M._________                         P.M.______________        

e|---------------------------------|---------------------------------| 
B|---------------------------------|---------------------------------| 
G|---------------------------------|---------------------------------|  
D|---------------------------------|---------------------------------| 
A|-----0-0---0-0-------------------|---------------------------------| 
D|-----0-0---0-0-------------------|-1p0-0-0-0-0-1p0-0-0-0-0-1-1-1-0-| 
       P.M._____                       P.M._____   __________________ 
    	

enviado porenviado por: adalgomes
cifra enviadaCorrigida por: sem correções
logo top cifrasComente
ico música do artistaMúsicas deste artista
ico curtiuCurtiu?
ico destaqueDestaque
Petaxxon Comunicação Online

Cifras.com.br - Melhor e mais completo site de cifras e tablaturas do Brasil Mais de 1 milhão de acordes de músicas cadastradas desde 2003
As informações contidas no nosso site são colaborações de seus usuários e podem conter erros, sendo assim, não nos responsabilizamos sobre nenhuma destas.

close
menos
mais
close
Cor dos acordes:

Cor da letra:

close
Alinhar acordes a direita Alinhar acordes a esquerda Alinhar acordes em baixo Alinhar acordes no topo
close
  Mostrar todos os acordes Esconder acordes muito fáceis Esconder acordes fáceis Esconder acordes intermediários
redimensionar
glossário