Cifras e Tablaturas
Yebba

Yebba

My Mind

Cifras Cancelar Versão de Impressão
cifras

Yebba - My Mind

fixar na tela  
Exibindo: vídeo-aula ver clipes redimensionar

Tom:

  
Intro 
e|0----0--0----0--|0----0--0----0--|0----0--0----0--|0----0--0----0--| 
B|---0-------0----|---0-------0----|---0-------0----|---0-------0----| 
G|--0---0---0---0-|--0---0---0---0-|--0---0---0---0-|--0---0---0---0-| 
D|2---2---2---2---|0---0---0---0---|----------------|----------------| x2 
A|----------------|----------------|3---3---3---3---|0---0---0---0---| 
E|----------------|----------------|----------------|----------------| 

verse 1 
e|0----0--0----0--|0----0--0----0--|0----0--0----0--|0----0--0----0--| 
B|---0-------0----|---0-------0----|---0-------0----|---0-------0----| 
G|--0---0---0---0-|--0---0---0---0-|--0---0---0---0-|--0---0---0---0-| 
D|2---2---2---2---|0---0---0---0---|----------------|----------------| x2 
A|----------------|----------------|3---3---3---3---|0---0---0---0---| 
E|----------------|----------------|----------------|----------------| 
   I heard you come...               You closed the door... 
   But then I heard...               Your dirty secret's... 

Chorus 1 
e|----------------|----------------|----------------|----------------| 
B|----------------|----------------|----------------|1----1--1----1--| 
G|0----0--0----0--|0----0--0----0--|0----0--0----0--|---2-------2----| 
D|---2-------2----|---4-------4----|---2-------2----|----------------| x2 
A|----------------|5---5-5-5---5-5-|3---3-3-3---3-3-|0---0-0-0---0-0-| 
E|0---0---0---0---|----------------|----------------|----------------| 
      I...             I...             I...          I'm bout to...  
      I...             I...             I...          I'm bout to...  

e|---10-----------|----------------|----------------|----------------| 
B|8----8--8----8--|7----7--7----7--|5----5--5----5--|1----1--1----1--| 
G|-----------0----|---0-------0----|---0-------0----|---0-------0----| 
D|--9---9---9---9-|--7---7---7---7-|--5---5---5---5-|--2---2---2---2-| x2 
A|7---7---7---7---|5---5---5---5---|3---3---3---3---|0---0---0---0---| 
E|----------------|----------------|----------------|----------------| 
       My mind...       My mind...       My mind...      bout to... 
       My mind...       My mind...       My mind...    I think about... 

Instrumental Break 
e|----------------|----------------|----------------|----------------| 
B|----------------|----------------|----------------|1----1--0----0--| 
G|0----0--0----0--|0----0--0----0--|0----0--0----0--|---2---2---2--2-| 
D|---2-------2----|---4-------4----|---2-------2----|----------------| 
A|----------------|5---5-5-5---5-5-|3---3---3---3-0-|0---0-0-0---0---| 
E|0---0---0---0---|----------------|----------------|----------------| 

verse 2 
e|0----0--0----0--|0----0--0----0--|0----0--0----0--|0----0--0----0--| 
B|---0-------0----|---0-------0----|---0-------0----|---0-------0----| 
G|--0---0---0---0-|--0---0---0---0-|--0---0---0---0-|--0---0---0---0-| 
D|2---2---2---2---|0---0---0---0---|----------------|----------------| x2 
A|----------------|----------------|3---3---3---3---|0---0---0---0---| 
E|----------------|----------------|----------------|----------------| 
       You can't even...              Her love is strong... 
   You say you love me...             When I work so hard... 

Chorus 2 
e|----------------|----------------|----------------|----------------| 
B|----------------|----------------|----------------|1----1--1----1--| 
G|0----0--0----0--|0----0--0----0--|0----0--0----0--|---2-------2----| 
D|---2-------2----|---4-------4----|---2-------2----|----------------| x2 
A|----------------|5---5-5-5---5-5-|3---3-3-3---3-3-|0---0-0-0---0-0-| 
E|0---0---0---0---|----------------|----------------|----------------| 
      I...             I...             I...          I'm bout to...  
      I...             I...             I...          I'm bout to...  

e|---10-----------|----------------|----------------|----------------| 
B|8----8--8----8--|7----7--7----7--|5----5--5----5--|1----1--1----1--| 
G|-----------0----|---0-------0----|---0-------0----|---0-------0----| 
D|--9---9---9---9-|--7---7---7---7-|--5---5---5---5-|--2---2---2---2-| x2 
A|7---7---7---7---|5---5---5---5---|3---3---3---3---|0---0---0---0---| 
E|----------------|----------------|----------------|----------------| 
       My mind...       My mind...       My mind...      bout to... 
       My mind...       My mind...       My mind...      bout to... 


Instrumental Break 
e|----------------|----------------|----------------|----------------| 
B|8----8--8----8--|7----7--7----7--|5----5--5----5--|1----1--1----1--| 
G|---0-------0----|---0-------0----|---0-------0----|---0-------0----| 
D|--9---9---9---9-|--7---7---7---7-|--5---5---5---5-|--2---2---2---2-| x2 
A|7---7---7---7---|5---5---5---5---|3---3---3---3---|0---0---0---0---| 
E|----------------|----------------|----------------|----------------| 
                                            How could ya...  
     ...do this to me... 

Bridge 
e|----------------|----------------|----------------|----------------| 
B|----------------|----------------|----------------|1-----0------0/1| 
G|0----0-------0--|0---------------|0-----0---------|---2------------| 
D|---2------------|---4------------|---2--0h2-------|----------------| 
A|----------------|5---5-----------|3---3-----------|0----0------0---| 
E|0---------------|----------------|----------------|----------------| 
   No way...  She can't take... 

e|----------------|----------------|----------------|----------------| 
B|----------------|----------------|----------------|1-----1-----1---| 
G|0----0----------|0---------------|0-----0---------|---2-----2------| 
D|---2------------|---4------------|---2-----2------|----------------| 
A|----------------|5-----5---------|3---3-------5---|0---0------0--0-| 
E|0---------------|----------------|----------------|----------------| 
   I sure...  I'll be damned... 

e|----------------|----------------|----------------|----------------| 
B|----------------|----------------|----------------|---1-----1--0---| 
G|0-----0--0-0----|---0----------0-|---0----------0-|------------2---| 
D|---2----------2-|------4----4----|------2----2----|----------------| 
A|----------------|5---5---5---5---|3---3-----------|0-----0----0--0-| 
E|0---0---0---0---|----------------|----------------|----------------| 
   No way...  She can't take... 

e|----------------|----------------|----------------|----------------| 
B|----------------|----------------|----------------|------1---------| 
G|---0-------0----|---0-------0----|---0-------0----|---0------------| 
D|------2-------2-|------4-------4-|------2-------2-|-----------2--0-| 
A|----------------|5---5---5---5---|3---3---3---3---|0---0---0---0---| 
E|0---0---0---0---|----------------|----------------|----------------| 
   I sure...  I'll be damned... 

e|---10------10---|----------------|----------------|----------------| 
B|8----8--8----8--|7----7--7----7--|5----5--5----5--|1----1--1----1--| 
G|----------------|---0-------0----|---0-------0----|---0-------0----| 
D|--9---9---9---9-|--7---7---7---7-|--5---5---5---5-|--2---2---2---2-| 
A|7---7---7---7---|5---5---5---5---|3---3---3---3---|0---0---0---0---| 
E|----------------|----------------|----------------|----------------| 
   No way...  She can't take...  

e|----------------|----------------|----------------|----------------| 
B|8----8--9----8--|7----7--8----7--|5----5--5----5--|1----1--1----1--| 
G|---0-------0----|---0-------0----|---0-------0----|---0-------0----| 
D|--9---9---9---9-|--7---7---7---7-|--5---5---5---5-|--2---2---2---2-| 
A|7---7---7---7---|5---5---5---5---|3---3---3---3---|0---0---0---0---| 
E|----------------|----------------|----------------|----------------|       
   I sure...  I'll be damned... 


Outro 

e|---10-----------|----------------|----------------|----------------| 
B|8----8--8----8--|7----7--7----7--|5----5--5----5--|1----1--1----1--| 
G|-----------0----|---0-------0----|---0-------0----|---0-------0----| 
D|--9---9---9---9-|--7---7---7---7-|--5---5---5---5-|--2---2---2---2-| 
A|7---7---7---7---|5---5---5---5---|3---3---3---3---|0---0---0---0---| 
E|----------------|----------------|----------------|----------------| 
       In my mind...    My mind...       My mind...    I think about... 

e|----------------|----------------|----------------|----------------|----------------| 
B|8----8--8----8--|7----7--7----7--|5----5--5----5--|1----1--0----0--|----------------| 
G|---0-------0----|---0-------0----|---0-------0----|---0-------0----|0---------------| 
D|--9---9---9---9-|--7---7---7---7-|--5---5---5---5-|--2---2---2---2-|----------------| 
A|7---7---7---7---|5---5---5---5---|3---3---3---3---|0---0---0---0---|----------------| 
E|----------------|----------------|----------------|----------------|0---------------| 
                My mind... 



************************************ 

| /  Slide up 
| h  Hammer-on 

************************************ 
  

top 5 | yebba
top rock'n roll
Outras músicas do artista letras do(a) Yebba
Top cifras »Top artistas »
Petaxxon Comunicação Online
Cifras.com.br - Melhor e mais completo site de cifras e tablaturas do Brasil
Mais de 1 milhão de acordes de músicas cadastradas desde 2003
As informações contidas no nosso site são colaborações de seus usuários e podem conter erros, sendo assim, não nos responsabilizamos sobre nenhuma destas.
close
menos
mais
close
Cor dos acordes:

Cor da letra:

 

save
close
close
 
redimensionar