Cifras e Tablaturas
Yes

Yes

Mood for a Day

Ano: 1973
Album : Fragile

Cifras Cancelar Versão de Impressão
cifras

Yes - Mood for a Day

fixar na tela  
Exibindo: vídeo-aula ver clipes redimensionar

Tom:

  
e|-------------3--2--2--2-----------------------------------------  
B|-------0-2-3----3--3--3-----------------------------------------  
G|---0-3----------4--4--4-----------------------------------------  
D|-4--------------4-----------------------------------------------  
A|----------------2--------2--------------------------------------  
E|----------------------------------------------------------------  


e|-------0--------------------------------------------------------  
B|---2h3---3-2h3p2p0----------------------------------------------  
G|-------------------2~-------------------------------------------  
D|----------------------------------------------------------------  
A|-0--------------------------------------------------------------  
E|----------------------------------------------------------------  


e|---------------0------------------------------------------------  
B|---3-2p0---2h3-----3-2p0----2~----------------------------------  
G|----------------------------------------------------------------  
D|----------------------------------------------------------------  
A|-----------------2--------1-------------------------------------  
E|-3-------2------------------------------------------------------  


e|-------------3--2----2h3-5-3-2h3p2p0----------------------------  
B|-------0-2-3----3-----------------------------------------------  
G|---0-3----------4--------------------2~-------------------------  
D|-4--------------4--0--------------------------------------------  
A|----------------2-----------------------------------------------  
E|----------------------------------------------------------------  

e|---------------0------------------------------------------------  
B|---3-2p0---2h3-----3-2p0----2~----------------------------------  
G|----------------------------------------------------------------  
D|----------------------------------------------------------------  
A|-----------------2--------1-------------------------------------  
E|-3-------2------------------------------------------------------  



e|----------------------------------------------------------------  
B|-------0-2-3-0-2---0--------------------------------------------  
G|---0-3-----------3---0-3---0------------------------------------  
D|-4-----------------------4---2-4-0-2---0------------------------  
A|-------------------------------------4---2-4-0-2----------------  
E|----------------------------------------------------------------  


e|------------------------------------2---------------------------  
B|-----------------------------------2----------------------------  
G|----------------------------------3-----------------------------  
D|---------------------------------4------------------------------  
A|--------------------------------4-------------------------------  
E|-3-2h3p0h2h3p0h2h3p0h2h3p0h2h3p2--------------------------------  



e|----------------------------------------------------------------  
B|---3~-2-0----------3~-2p0----------3-2-0-------0----------------  
G|----------2p1-------------2p1-----0------2-0h2---2~---2~--------  
D|-0------------4~--------------4--0------------------0-----------  
A|----------------------------------------------------------------  
E|-----------------0--------------3-------------------------------  



e|----------------------------------2-----------------------------  
B|---0-----------------------------3------------------------------  
G|-----2p0-------0-4-2p0----------4-------------------------------  
D|---------4-2h4---------4-2p0---4--------------------------------  
A|-----------------------------2----------------------------------  
E|-3--------------------------------------------------------------  


e|----------------------------------------------------------------  
B|---3-1----------------------------------------------------------  
G|-------3-2-0----------------------------------------------------  
D|-------------0--------------------------------------------------  
A|-1--------------------------------------------------------------  
E|----------------------------------------------------------------  


e|-5-3-5-3-1-0------------------------------------2---------------  
B|-------------3-1-------------------------------2----------------  
G|-----------------3-2~-0-----------------------3-----------------  
D|------------------------3-2-0----------------4------------------  
A|------------------------------3-1-0---------4-------------------  
E|------------------------------------3-2-0--2--------------------  


e|-2-4---5-4-2---2-0---------0--------------0---------------------  
B|-------------------3---2h3----3-2-0---2h3----3-2-0---2----------  
G|----------------------------------------------------------------  
D|-------------0--------------------------------------------------  
A|---------------------0----------------------2-------1-----------  
E|-----0-----------------------3-------2--------------------------  



e|-2-4---5-4-2---2-0---------0--------------0---------------------  
B|-------------------3---2h3----3-2-0---2h3----3-2-0---2----------  
G|----------------------------------------------------------------  
D|-------------0--------------------------------------------------  
A|---------------------0----------------------2-------1-----------  
E|-----0-----------------------3-------2--------------------------  

e|-2-4---5-4-5/7---7/12-12-12---12--------------------------------  
B|----------------------------------------------------------------  
G|----------------------------------------------------------------  
D|---------------0------------------------------------------------  
A|----------------------------------------------------------------  
E|-----0----------------------9-----------------------------------  



e|-10-9---14-12-10----10--9-7---9-7-5---7-5-3---------------------  
B|----------------------------------------------------------------  
G|------------------------------------0---------------------------  
D|------0----------11---------7-----------------------------------  
A|----------------------------------------------------------------  
E|----------------------------------------------------------------  


e|---5-5p4p3p2-2h3p2p0----------5-5p4p3p2-2h3p2p0-----------------  
B|---------------------3---3----------------------3---------------  
G|-----------------------2--------------------------2/4\2---------  
D|-0--------------------------0-----------------------------------  
A|----------------------------------------------------------------  
E|----------------------------------------------------------------  

e|---5-5p4p3p2-2h3p2p0----------10-10p9p8p7-0---------------------  
B|---------------------3---3--------------------------------------  
G|-----------------------2----0-----------------------------------  
D|-0--------------------------------------------------------------  
A|----------------------------------------------------------------  
E|----------------------------------------------------------------  

e|----------------------------------------------------------------  
B|--------------------------------------------3-------------------  
G|-4-2h4p2p0----------------------------------2-------------------  
D|------------4-2h4p2p0--------------------0--0-------------------  
A|----------------------4-2h4p2h4p2h4p2p0-------------------------  
E|--------------------------------------------2-------------------  

  

top 5 | yes
top rock'n roll
Outras músicas do artista letras do(a) Yes
1.
Soon
Top cifras »Top artistas »
Petaxxon Comunicação Online
Cifras.com.br - Melhor e mais completo site de cifras e tablaturas do Brasil
Mais de 1 milhão de acordes de músicas cadastradas desde 2003
As informações contidas no nosso site são colaborações de seus usuários e podem conter erros, sendo assim, não nos responsabilizamos sobre nenhuma destas.
close
menos
mais
close
Cor dos acordes:

Cor da letra:

 

save
close
close
 
redimensionar