Cifras e Tablaturas
Cifras Cancelar Versão de Impressão
cifras

You Me At Six - Swear

fixar na tela  
Exibindo: vídeo-aula ver clipes redimensionar

Tom:

  
Intro 

D|-------------------------   -------------------------------------------------------| 
A|-------------------------   -------------------------------------------------------| 
F|---7-7-7----9-9-9--------   -------------------------------------------------------| 
C|---7-7-7----9-9-9----9-9-   ------------------------------12-12-12--14-14-14-------| 
G|---5-5-5----7-7-7----9-9-   ------------------------------12-12-12--14-14-14-------| 
C|---------------------9-9-   --9-9-9-9-9-9-9h11h12---(x3)--12-12-12--14-14-14-------| x2 

verse 

D|---------------------------------------------------------------------------| 
A|---------------------------------------------------------------------------| 
F|---------------------------------------------------------------------------| 
C|------------------------------------------12-12-12--14-14-14---------------| 
G|------------------------------------------12-12-12--14-14-14---------------| 
C|--------------9-9-9-9-9-9-9h11h12---(x3)--12-12-12--14-14-14---------------| x4 

alternatively: 

D|---------------------------------------------------------------------------| 
A|---------------------------------------------------------------------------| 
F|-------------------------------7-7-7---9-9-9-------------------------------| 
C|-------------------------------7-7-7---9-9-9-------------------------------| 
G|-----2-2-2-2-2-2-2h4h5---(x3)--5-5-5---7-7-7-------------------------------| 
C|---------------------------------------------------------------------------| 


Chorus 

D|-----------------------------------------------------------------| 
A|-----------------------------------------------------------------| 
F|---------------7-7-7-7-----------------------9-9-9-9-------------| 
C|--9-9-9-9------7-7-7-7-------7-7-7-7---------9-9-9-9-------------| 
G|--9-9-9-9------5-5-5-5-------7-7-7-7---------7-7-7-7-------------| 
C|--9-9-9-9--------------------7-7-7-7-----------------------------| x2 

verse 
 x2 

bridge 

D|------------------------------------------------| 
A|------------------------------------------------| 
F|------------------------------------------------| 
C|-----9--------12---------14---------------------| 
G|-----9--------12---------14---------------------| 
C|-----9--------12---------14---------------------| 

 x2 

end on  
D|-----------| 
A|-----------| 
F|-----------| 
C|-----9-----| 
G|-----9-----| 
C|-----9-----|  
  

top 5 | you me at six
top rock alternativo
Outras músicas do artista letras do(a) You Me At Six
Top cifras »Top artistas »
Petaxxon Comunicação Online
Cifras.com.br - Melhor e mais completo site de cifras e tablaturas do Brasil
Mais de 1 milhão de acordes de músicas cadastradas desde 2003
As informações contidas no nosso site são colaborações de seus usuários e podem conter erros, sendo assim, não nos responsabilizamos sobre nenhuma destas.
close
menos
mais
close
Cor dos acordes:

Cor da letra:

 

save
close
close
 
redimensionar