Cifras e Tablaturas
Zé Ramalho

Zé Ramalho

Sinônimos

Ano: 2005
Album : Ao Vivo

Cifras Cancelar Versão de Impressão Print

Zé Ramalho - Sinônimos

Tom: C

  			TOM: C 
 
 
E------------------------------------------------- 
B------------------------------------------------- 
G------------------------------------------------- 
D------------------------------------------------- 
A------2-5-3-------------------------------------- 
E--3-5-------------------------------------------- 
 
 
E-8-7-5-7-5---5----------------------------------- 
B-----------8---8-6-8-6-5-6-5---5----------------- 
G-----------------------------7---7-5-7-5--------- 
D------------------------------------------------- 
A------------------------------------------------- 
E------------------------------------------------- 
 
E------------------------------------------------- 
B----5--6--5-------------------------------------- 
G-7-----------7----------------------------------- 
D------------------------------------------------- 
A------------------------------------------------- 
E------------------------------------------------- 
 
E------------------------------------------------- 
B------------------------------------------------- 
G-----5-7-5--------------------------------------- 
D-5-7--------------------------------------------- 
A------------------------------------------------- 
E------------------------------------------------- 
 
 
 
 

    	
fixar
fixar inscrever-se

enviado porenviado por: bigudi
cifra enviadaCorrigida por: sem correções
logo top cifrasComente
ico música do artistaMúsicas deste artista
ico curtiuCurtiu?
ico destaqueDestaque
Petaxxon Comunicação Online

Cifras.com.br - Melhor e mais completo site de cifras e tablaturas do Brasil Mais de 1 milhão de acordes de músicas cadastradas desde 2003
As informações contidas no nosso site são colaborações de seus usuários e podem conter erros, sendo assim, não nos responsabilizamos sobre nenhuma destas.

close
menos
mais
close
Cor dos acordes:

Cor da letra:

close
Alinhar acordes a direita Alinhar acordes a esquerda Alinhar acordes em baixo Alinhar acordes no topo
close
  Mostrar todos os acordes Esconder acordes muito fáceis Esconder acordes fáceis Esconder acordes intermediários
redimensionar
glossário