Cifras e Tablaturas
Zebrahead

Zebrahead

Battle Hymn

Cifras Cancelar Versão de Impressão
cifras

Zebrahead - Battle Hymn

fixar na tela  
Exibindo: vídeo-aula ver clipes redimensionar

Tom:

  
intro chords 
eb|----------------|-3-| 
bb|----------------|-3-| 
gb|-----------5----|-4-| 
db|-5--5-7--7-5-x2-|-5-| 
ab|-5--5-7--7-3----|-5-| 
eb|-3--3-5--5------|-3-| 
    d  u d  d u      d 

Riff (listen to the rhythm) 
eb|---------------|-------------|-----------------|--------------| 
bb|---------------|-------------|-----------------|--------------| 
gb|------------2--|----------2--|-----------------|------2-2-4-4-| 
db|-0-0-000-3-3-3-|-000-0-3-3-3-|-5-5-555-3-5-3-5-|-555-5--------| 
ab|---------------|-------------|-----------------|--------------| 
eb|---------------|-------------|-----------------|--------------| 
                                                                   end of the song 
eb|---------------|-------------|-----------------|--------------|-3-3-| 
bb|---------------|-------------|-----------------|--------------|-3-3-| 
gb|------------2--|------2------|-----------------|-555-5-2-2----|-4-4-| 
db|-0-0-000-3-3-3-|-333-3-3-2-3-|-5-5-555-3-5-3-5-|----------5-5-|-5-5-| 
ab|---------------|-------------|-----------------|--------------|-5-5-| 
eb|---------------|-------------|-----------------|--------------|-3-3-| 
                                                                   d u 

verse (this is work in progress) 
i tend to play without the root note for easier chord grab. 
eb|--3-3-3-3-3-3-3-333--6-6-6-6-6-6-6-666-| 
bb|--3-3-3-3-3-3-3-333--6-6-6-6-6-6-6-666-| 
gb|--4-4-4-4-4-4-4-444--7-7-7-7-7-7-7-777-| 
db|--5-5-5-5-5-5-5-555--8-8-8-8-8-8-8-888-|x3 
ab|--5-5-5-5-5-5-5-555--8-8-8-8-8-8-8-888-| 
eb|-x3x3x3x3x3x3x3x333-x6x6x6x6x6x6x6x666-| 
    dududududududududu dududududududududu 

eb|--3-3-3-3-3-3-3-333--6-6-6-6--------------| 
bb|--3-3-3-3-3-3-3-333--6-6-6-6--------------| 
gb|--4-4-4-4-4-4-4-444--7-7-7-7------------5-| 
db|--5-5-5-5-5-5-5-555--8-8-8-8--5--5-7--7-5-| 
ab|--5-5-5-5-5-5-5-555--8-8-8-8--5--5-7--7-3-| 
eb|-x3x3x3x3x3x3x3x333-x6x6x6x6x-3--3-5--5---| 
    dududududududududu dudududud d  u d  d u 

little bit in 2nd verse 
it's close but i don't think it's right!  
eb|-3-----| 
bb|--3-6--| 
gb|-----5-| 
db|-------| 
ab|-------| 
eb|-------| 

Chorus 
eb|--6-6-6-6-6-6-6-666--6-6-6-6-6-6-6-666-| 
bb|--6-6-6-6-6-6-6-666--6-6-6-6-6-6-6-666-| 
gb|--7-7-7-7-7-7-7-777--7-7-7-7-7-7-7-777-|x2 
db|--8-8-8-8-8-8-8-888--5-5-5-5-5-5-5-555-| 
ab|--8-8-8-8-8-8-8-888--5-5-5-5-5-5-5-555-| 
eb|-x6x6x6x6x6x6x6x666-x3x3x3x3x3x3x3x333-| 

solo rhythm i play the Chorus but it doesn't seem to 
match with the bridge and i don't know i need help here... 

bridge 
eb|--3-3-3-3-3-3-3-555--6-6-6-6-6-6-6-555-| 
bb|--3-3-3-3-3-3-3-555--6-6-6-6-6-6-6-555-| 
gb|--4-4-4-4-4-4-4-666--7-7-7-7-7-7-7-666-| 
db|--5-5-5-5-5-5-5-777--8-8-8-8-8-8-8-777-| 
ab|--5-5-5-5-5-5-5-777--8-8-8-8-8-8-8-777-| 
eb|-x3x3x3x3x3x3x3x555-x6x6x6x6x6x6x6x555-| 

eb|--3-3-3-3-3-3-3-555--6-6-6-6--------------| 
bb|--3-3-3-3-3-3-3-555--6-6-6-6--------------| 
gb|--4-4-4-4-4-4-4-666--7-7-7-7------------5-| 
db|--5-5-5-5-5-5-5-777--8-8-8-8--5--5-7--7-5-| 
ab|--5-5-5-5-5-5-5-777--8-8-8-8--5--5-7--7-3-| 
eb|-x3x3x3x3x3x3x3x555-x6x6x6x6x-3--3-5--5---| 
    dududududududududu dudududud d  u d  d u 

then single chords from the Chorus 
(nothing yes i'm that lazy i can't be bothered) 
and a bit of Chorus 

then intro riff and the chord. 
  

top 5 | zebrahead
top punk rock
Outras músicas do artista letras do(a) Zebrahead
4.
Blur
Top cifras »Top artistas »
Petaxxon Comunicação Online
Cifras.com.br - Melhor e mais completo site de cifras e tablaturas do Brasil
Mais de 1 milhão de acordes de músicas cadastradas desde 2003
As informações contidas no nosso site são colaborações de seus usuários e podem conter erros, sendo assim, não nos responsabilizamos sobre nenhuma destas.
close
menos
mais
close
Cor dos acordes:

Cor da letra:

 

save
close
close
 
redimensionar