Cifras e Tablaturas
Zélia Duncan

Zélia Duncan

Catedral

Ano: 2002
Album : Sortimento: Ao Vivo
Compositor : (Tanita Tikaram)

Cifras Cancelar Versão de Impressão Print

Zélia Duncan - Catedral

Tom: A

  			CATEDRAL 
Tom: A 
 
INTRO: 
  A     D           Bm    E            A  D          Bm     E 
e|-----------9h10-9---------------------------------------------------| 
B|---10---10--------10---10\9-9\7-7\5-5--------2-3-2-5-3-0--3p2-3-3h5-| 
G|-9------------------------------------------------------------------| 
D|--------------------------------------------------------------------| 
A|-------------------------------------------0------------------------| 
E|--------------------------------------------------------------------| 
 
    A                 D  23/25\23 
O deserto onde atravessei 
Bm                  E 
 Ninguém me viu passar 
            A  25/27\25 
Estranha e só 
         D 
Nem pude ver 
Bm              E 
 Que o céu é maior 
         D 32 23 10    A 
Tentei dizer, mas vi você 
          E      25 25h27 25 
Tão longe de chegar,  
D                     A  23/25\23 15 
 mas perto de algum lugar 
    A      15     D           25/27 25 23 36 34 
É deserto onde eu te encontrei 
Bm              E 
 Você me viu passar 
         A 19 110 210  D      112 
Correndo só,       nem pude ver 
Bm 22 22/23\22 25  E 
 Que o tempo é maior 
          D 32 23 10   A 50 32 20 32 22 10 22 32 
Olhei pra mim, me vi assim 
               E    D 
Tão perto de chegar  onde 
            A 32 20 22/23 22 20 32 20 22 
Você não está 
E                A  25h27p25 36h37p36 20 32 34 
 No silêncio uma catedral 
E            A 22 22 23 22 /25 
 Um templo em mim 
E               A   20 22 
 Onde possa ser imortal 
    D 40 32 23 10 23 32 40 32 23 10 
Mas vai existir eu sei vai 
Bm 
Ter que existir 
E                     E4/7 (17 27 112 212)H 
Vai resistir nosso lugar 
    A 29 210 210  D 25\23 25 27 25 25\23 23\22 20 
Solidão   que pode evitar 
Bm              E 
 Te encontro enfim 
17 15 14 15 A 22h23p22 D 22 23 25 25 
   Meu coração,     é secular 
Bm              E 112 110 19 15 
Sonha e deságua dentro de mim 
   D 32 23 10 23 Bm 32 22 23 10 23 32 E 31 20 10 20 31 10 20 31 10  14 15 17 15 
Amanhã      devagar           me diz como voltar 
 
SOLO: 
   A         D    Bm               E           A        D       Bm 
e|---12-10-9------------9-10-12-10-12--10-9-------------------------------- 
B|-----------12-10---12---------------------12-10--------0-2-3-2/3-3/5-5/6- 
G|-------------------------------------------------9----------------------- 
D|---------------------------------------------------11-------------------- 
A|------------------------------------------------------------------------- 
E|------------------------------------------------------------------------- 
    E 
-5-5/7-4------| 
---------7-5--| 
--------------| 
--------------| 
--------------| 
--------------| 
 
         A  
Se eu disser 
         D     23/25\25 
Que foi por amor 
Bm 
 Não vou mentir 
    E 
Pra mim 
          A 25 25/27\25 
Se eu disser 
       D      23/25 23 22 20 
Deixa pra depois 
Bm                 E 10 
 Não foi sempre assim 
         D  12 12/15 
Tentei dizer 
          A 32 20 
Mas vi você 
          E      10h12 10 D        32 23 10 
Tão longe de chegar,        mas perto 
            A  e|-------0----0-| 
de algum lugar B|---0-2---2--2-| 
               G|-2------------| 

    	

enviado porenviado por: Tijolo Eletrico
cifra enviadaCorrigida por: sem correções
logo top cifrasComente
ico música do artistaMúsicas deste artista
ico curtiuCurtiu?
ico destaqueDestaque
Petaxxon Comunicação Online

Cifras.com.br - Melhor e mais completo site de cifras e tablaturas do Brasil Mais de 1 milhão de acordes de músicas cadastradas desde 2003
As informações contidas no nosso site são colaborações de seus usuários e podem conter erros, sendo assim, não nos responsabilizamos sobre nenhuma destas.

close
menos
mais
close
Cor dos acordes:

Cor da letra:

close
Alinhar acordes a direita Alinhar acordes a esquerda Alinhar acordes em baixo Alinhar acordes no topo
close
  Mostrar todos os acordes Esconder acordes muito fáceis Esconder acordes fáceis Esconder acordes intermediários
redimensionar
glossário