Cifras e Tablaturas
Zen Cafe

Zen Cafe

Talo

Cifras Cancelar Versão de Impressão
cifras

Zen Cafe - Talo

fixar na tela  
Exibindo: vídeo-aula ver clipes redimensionar

Tom:

E

ver outros tons
  
Intro 
(0:07 - 0:30) 
                                                                 
                                       Emin                      
       '              '              '              '            
e|-------------------------------------------------------------| 
B|-------------------------------------------------------------| 
G|----------------------------------------0--------------------| 
D|----------------------------------------2--------------------| 
A|----------------------------------------2--------------------| 
E|------------------------------0---------0--------------------| 
     
                                                 D5                          
     '                 '                 '                 '                 
e|-------------------------------------------------------------------------| 
B|------------------------------------------------3------------------------| 
G|------------------------------------------------2------------------------| 
D|------------------------------------------------0------------------------| 
A|------------------------------------------------0------------------------| 
E|---------------------------------0---------------------------------------| 

                                                 A5                          
     '                 '                 '                 '                 
e|-------------------------------------------------------------------------| 
B|-------------------------------------------------------------------------| 
G|-------------------------------------------------------------------------| 
D|------------------------------------------------7------------------------| 
A|------------------------------------------------7------------------------| 
E|---------------------------------0--------------5------------------------| 

                                                 C5                          
     '                 '                 '                 '                 
e|-------------------------------------------------------------------------| 
B|-------------------------------------------------------------------------| 
G|------------------------------------------------5------------------------| 
D|------------------------------------------------5------------------------| 
A|------------------------------------------------3------------------------| 
E|---------------------------------0---------------------------------------| 

                                       Emin                      
       '              '              '              '            
e|-------------------------------------------------------------| 
B|-------------------------------------------------------------| 
G|----------------------------------------0--------------------| 
D|----------------------------------------2--------------------| 
A|----------------------------------------2--------------------| 
E|------------------------------0---------0--------------------| 

                                                 D5                          
     '                 '                 '                 '                 
e|-------------------------------------------------------------------------| 
B|------------------------------------------------3------------------------| 
G|------------------------------------------------2------------------------| 
D|------------------------------------------------0------------------------| 
A|------------------------------------------------0------------------------| 
E|---------------------------------0---------------------------------------| 

                                                 A5                       
     '                 '                 '              '                 
e|----------------------------------------------------------------------| 
B|----------------------------------------------------------------------| 
G|----------------------------------------------------------------------| 
D|------------------------------------------------7---------------------| 
A|------------------------------------------------7---------------------| 
E|---------------------------------0--------------5---------------------| 
  
                                                 C5                       
     '                 '                 '              '                 
e|----------------------------------------------------------------------| 
B|----------------------------------------------------------------------| 
G|------------------------------------------------5---------------------| 
D|------------------------------------------------5---------------------| 
A|------------------------------------------------3---------------------| 
E|---------------------------------0------------------------------------| 

                                       Emin                 
       '              '              '         '            
e|--------------------------------------------------------| 
B|--------------------------------------------------------| 
G|----------------------------------------0---------------| 
D|----------------------------------------2---------------| 
A|----------------------------------------2---------------| 
E|------------------------------0---------0---------------| 
       
                                                 D5                          
     '                 '                 '                 '                 
e|-------------------------------------------------------------------------| 
B|------------------------------------------------3------------------------| 
G|------------------------------------------------2------------------------| 
D|------------------------------------------------0------------------------| 
A|------------------------------------------------0------------------------| 
E|---------------------------------0---------------------------------------| 
       
                                                 A5                          
     '                 '                 '                 '                 
e|-------------------------------------------------------------------------| 
B|-------------------------------------------------------------------------| 
G|-------------------------------------------------------------------------| 
D|------------------------------------------------7------------------------| 
A|------------------------------------------------7------------------------| 
E|---------------------------------0--------------5------------------------| 

                                                 C5                          
     '                 '                 '                 '                 
e|-------------------------------------------------------------------------| 
B|-------------------------------------------------------------------------| 
G|------------------------------------------------5------------------------| 
D|------------------------------------------------5------------------------| 
A|------------------------------------------------3------------------------| 
E|---------------------------------0---------------------------------------| 

   ''''  
e|-----| 
B|-----| 
G|-----| 
D|-----| 
A|-----| 
E|-----| 

Verse 
(0:30 - 0:44) 
                                                                                 
             E5                        D5                        A5              
     '     '     '     '       '     '     '     '       '     '     '     '     
e|-------------------------|-------------------------|-------------------------| 
B|-------------------------|-------------------------|-------------------------| 
G|------------9------------|------------7------------|------------2------------| 
D|------------9------------|------------7------------|------------2------------| 
A|------------7------------|------------5------------|------------0------------| 
E|-------------------------|-------------------------|-------------------------| 

             C5                        E5                                      
     '     '     '     '       '     '     '     '     ''''  ''''  ''''  ''''  
e|-------------------------|-------------------------|-----|-----|-----|-----| 
B|-------------------------|-------------------------|-----|-----|-----|-----| 
G|------------5------------|------------9------------|-----|-----|-----|-----| 
D|------------5------------|------------9------------|-----|-----|-----|-----| 
A|------------3------------|------------7------------|-----|-----|-----|-----| 
E|-------------------------|-------------------------|-----|-----|-----|-----| 

Verse 
(0:44 - 1:06) 
                                                                               
                         E5                                    E5              
   ''''  ''''  ''''    '  '  '  '  ''''  ''''  ''''    '     '     '     '     
e|-----|-----|-----|-------------|-----|-----|-----|-------------------------| 
B|-----|-----|-----|-------------|-----|-----|-----|-------------------------| 
G|-----|-----|-----|------9------|-----|-----|-----|------------9------------| 
D|-----|-----|-----|------9------|-----|-----|-----|------------9------------| 
A|-----|-----|-----|------7------|-----|-----|-----|------------7------------| 
E|-----|-----|-----|-------------|-----|-----|-----|-------------------------| 
   
                      A5                       
   ''''    '        '        '        '        
e|-----|-------------------------------------| 
B|-----|-------------------------------------| 
G|-----|---------------2---------------------| 
D|-----|---------------2---------------------| 
A|-----|---------------0---------------------| 
E|-----|-------------------------------------| 

                C5                             
     '        '        '        '        ''''  
e|-------------------------------------|-----| 
B|-------------------------------------|-----| 
G|---------------5---------------------|-----| 
D|---------------5---------------------|-----| 
A|---------------3---------------------|-----| 
E|-------------------------------------|-----| 

Chorus 
(1:06 - 1:36) 
                                                            
             E5 E5 E5 E5 E5    E5 E5 E5 G5 G5 G5 G5 G5 G5   
     '     '     '     '        '     '     '     '         
e|--------------------------|-----------------------------| 
B|--------------------------|-----------------------------| 
G|--------------------------|-----------------------------| 
D|------------2--2--2--2--2-|---2--2--2--5--5--5--5--5--5-| 
A|------------2--2--2--2--2-|---2--2--2--5--5--5--5--5--5-| 
E|------------0--0--0--0--0-|---0--0--0--3--3--3--3--3--3-| 

       G5 G5 A5 A5 A5 A5 A5    A5 A5 A5 C5 C5 C5 C5 C5 C5   
     '     '     '     '        '     '     '     '         
e|--------------------------|-----------------------------| 
B|--------------------------|-----------------------------| 
G|------------2--2--2--2--2-|---2--2--2--5--5--5--5--5--5-| 
D|------5--5--2--2--2--2--2-|---2--2--2--5--5--5--5--5--5-| 
A|------5--5--0--0--0--0--0-|---0--0--0--3--3--3--3--3--3-| 
E|------3--3----------------|-----------------------------| 


       C5 C5 E5 E5 E5 E5 E5 E5       E5 E5 G5 G5 G5 G5 G5 G5   
     '     '     '     '           '     '     '     '         
e|-----------------------------|-----------------------------| 
B|-----------------------------|-----------------------------| 
G|------5--5-------------------|-----------------------------| 
D|------5--5--2--2--2--2--2--2-|------2--2--5--5--5--5--5--5-| 
A|------3--3--2--2--2--2--2--2-|------2--2--5--5--5--5--5--5-| 
E|------------0--0--0--0--0--0-|------0--0--3--3--3--3--3--3-| 


       G5 G5 A5 A5 A5 A5 A5 A5       A5 A5 C5 C5 C5 C5 C5 C5   
     '     '     '     '           '     '     '     '         
e|-----------------------------|-----------------------------| 
B|-----------------------------|-----------------------------| 
G|------------2--2--2--2--2--2-|------2--2--5--5--5--5--5--5-| 
D|------5--5--2--2--2--2--2--2-|------2--2--5--5--5--5--5--5-| 
A|------5--5--0--0--0--0--0--0-|------0--0--3--3--3--3--3--3-| 
E|------3--3-------------------|-----------------------------| 

       C5 C5 E5 E5 E5 E5 E5 E5       E5 E5 G5 G5 G5 G5 G5 G5   
     '     '     '     '           '     '     '     '         
e|-----------------------------|-----------------------------| 
B|-----------------------------|-----------------------------| 
G|------5--5-------------------|-----------------------------| 
D|------5--5--2--2--2--2--2--2-|------2--2--5--5--5--5--5--5-| 
A|------3--3--2--2--2--2--2--2-|------2--2--5--5--5--5--5--5-| 
E|------------0--0--0--0--0--0-|------0--0--3--3--3--3--3--3-| 

       G5 G5 A5 A5 A5 A5 A5    A5 A5 A5 C5 C5 C5 C5 C5 C5   
     '     '     '     '        '     '     '     '         
e|--------------------------|-----------------------------| 
B|--------------------------|-----------------------------| 
G|------------2--2--2--2--2-|---2--2--2--5--5--5--5--5--5-| 
D|------5--5--2--2--2--2--2-|---2--2--2--5--5--5--5--5--5-| 
A|------5--5--0--0--0--0--0-|---0--0--0--3--3--3--3--3--3-| 
E|------3--3----------------|-----------------------------| 

       C5 C5 E5 E5 E5 E5 E5    E5 E5 E5 G5 G5 G5 G5 G5 G5   
     '     '     '     '        '     '     '     '         
e|--------------------------|-----------------------------| 
B|--------------------------|-----------------------------| 
G|------5--5----------------|-----------------------------| 
D|------5--5--2--2--2--2--2-|---2--2--2--5--5--5--5--5--5-| 
A|------3--3--2--2--2--2--2-|---2--2--2--5--5--5--5--5--5-| 
E|------------0--0--0--0--0-|---0--0--0--3--3--3--3--3--3-| 

       G5 G5 A5 A5 A5 A5 A5 A5       A5 A5 C5 C5 C5 C5 C5 C5   
     '     '     '     '           '     '     '     '         
e|-----------------------------|-----------------------------| 
B|-----------------------------|-----------------------------| 
G|------------2--2--2--2--2--2-|------2--2--5--5--5--5--5--5-| 
D|------5--5--2--2--2--2--2--2-|------2--2--5--5--5--5--5--5-| 
A|------5--5--0--0--0--0--0--0-|------0--0--3--3--3--3--3--3-| 
E|------3--3-------------------|-----------------------------| 

       C5                    
     '     '     '     '     
e|-------------------------| 
B|-------------------------| 
G|------5------------------| 
D|------5------------------| 
A|------3------------------| 
E|-------------------------| 

Verse 
(1:36 - 1:51) 
                                               
             E5                                
     '     '     '     '     ''''  ''''  ''''  
e|-------------------------|-----|-----|-----| 
B|-------------------------|-----|-----|-----| 
G|------------9------------|-----|-----|-----| 
D|------------9------------|-----|-----|-----| 
A|------------7------------|-----|-----|-----| 
E|-------------------------|-----|-----|-----| 

                E5    E5 E5    E5 E5    E5   
     '        '        '        '            
e|-----------------------------------------| 
B|-----------------------------------------| 
G|-----------------------------------------| 
D|---------------9-----9--9-----9--9-----9-| 
A|---------------7-----7--7-----7--7-----7-| 
E|-----------------------------------------| 

          E5       E5       D5       D5       D5       D5       D5       D5   
     '                 '                 '                 '                  
e|--------------------------------------------------------------------------| 
B|--------------------------------------------------------------------------| 
G|--------------------------------------------------------------------------| 
D|---------9--------9--------7--------7--------7--------7--------7--------7-| 
A|---------7--------7--------5--------5--------5--------5--------5--------5-| 
E|--------------------------------------------------------------------------| 

          D5       D5       A5       A5       A5       A5       A5       A5   
     '                 '                 '                 '                  
e|--------------------------------------------------------------------------| 
B|--------------------------------------------------------------------------| 
G|--------------------------------------------------------------------------| 
D|---------7--------7--------2--------2--------2--------2--------2--------2-| 
A|---------5--------5--------0--------0--------0--------0--------0--------0-| 
E|--------------------------------------------------------------------------| 

          A5       A5       C5       C5       C5       C5       C5       C5   
     '                 '                 '                 '                  
e|--------------------------------------------------------------------------| 
B|--------------------------------------------------------------------------| 
G|--------------------------------------------------------------------------| 
D|---------2--------2--------5--------5--------5--------5--------5--------5-| 
A|---------0--------0--------3--------3--------3--------3--------3--------3-| 
E|--------------------------------------------------------------------------| 

       C5 C5                             
     '        '        '        '        
e|-------------------------------------| 
B|-------------------------------------| 
G|-------------------------------------| 
D|------5--5---------------------------| 
A|------3--3---------------------------| 
E|-------------------------------------| 

Verse 
(1:51 - 2:06) 
                                          
                E5 E5    E5 E5    E5 E5   
     '        '        '        '         
e|--------------------------------------| 
B|--------------------------------------| 
G|--------------------------------------| 
D|---------------9--9-----9--9-----9--9-| 
A|---------------7--7-----7--7-----7--7-| 
E|--------------------------------------| 

          E5       E5       D5       D5       D5       D5       D5       D5   
     '                 '                 '                 '                  
e|--------------------------------------------------------------------------| 
B|--------------------------------------------------------------------------| 
G|--------------------------------------------------------------------------| 
D|---------9--------9--------7--------7--------7--------7--------7--------7-| 
A|---------7--------7--------5--------5--------5--------5--------5--------5-| 
E|--------------------------------------------------------------------------| 

          D5       D5       A5       A5       A5       A5       A5       A5   
     '                 '                 '                 '                  
e|--------------------------------------------------------------------------| 
B|--------------------------------------------------------------------------| 
G|--------------------------------------------------------------------------| 
D|---------7--------7--------2--------2--------2--------2--------2--------2-| 
A|---------5--------5--------0--------0--------0--------0--------0--------0-| 
E|--------------------------------------------------------------------------| 

          A5       A5       C5       C5       C5       C5       C5       C5   
     '                 '                 '                 '                  
e|--------------------------------------------------------------------------| 
B|--------------------------------------------------------------------------| 
G|--------------------------------------------------------------------------| 
D|---------2--------2--------5--------5--------5--------5--------5--------5-| 
A|---------0--------0--------3--------3--------3--------3--------3--------3-| 
E|--------------------------------------------------------------------------| 

          C5       C5       E5       E5       E5       E5       E5       E5   
     '                 '                 '                 '                  
e|--------------------------------------------------------------------------| 
B|--------------------------------------------------------------------------| 
G|--------------------------------------------------------------------------| 
D|---------5--------5--------9--------9--------9--------9--------9--------9-| 
A|---------3--------3--------7--------7--------7--------7--------7--------7-| 
E|--------------------------------------------------------------------------| 

          E5       E5       D5       D5       D5       D5       D5       D5   
     '                 '                 '                 '                  
e|--------------------------------------------------------------------------| 
B|--------------------------------------------------------------------------| 
G|--------------------------------------------------------------------------| 
D|---------9--------9--------7--------7--------7--------7--------7--------7-| 
A|---------7--------7--------5--------5--------5--------5--------5--------5-| 
E|--------------------------------------------------------------------------| 
       
          D5       D5       A5                                                  
     '                 '                 '                    '                 
e|----------------------------------------------------------------------------| 
B|----------------------------------------------------------------------------| 
G|---------------------------2------------------------------------------------| 
D|---------7--------7--------2------------------------------------------------| 
A|---------5--------5--------0------------------------------------------------| 
E|----------------------------------------------------------------------------| 

                C5                             
     '        '        '        '        ''''  
e|-------------------------------------|-----| 
B|-------------------------------------|-----| 
G|---------------5---------------------|-----| 
D|---------------5---------------------|-----| 
A|---------------3---------------------|-----| 
E|-------------------------------------|-----| 

Bridge 
(2:06 - 2:20) 
                                                         
             E5 E5 E5 E5 E5    E5 E5 E5 E5 E5 E5 E5 E5   
     '     '     '     '        '     '     '     '      
e|-----------12-12-12-12-12-|--12-12-12-12-12-12-12-12-| 
B|-----------12-12-12-12-12-|--12-12-12-12-12-12-12-12-| 
G|--------------------------|--------------------------| 
D|--------------------------|--------------------------| 
A|--------------------------|--------------------------| 
E|--------------------------|--------------------------| 

    E5 E5 E5 D5 D5 D5 D5 D5    D5 D5 D5 D5 D5 D5 D5 D5   
     '     '     '     '        '     '     '     '      
e|--12-12-12-10-10-10-10-10-|--10-10-10-10-10-10-10-10-| 
B|--12-12-12-10-10-10-10-10-|--10-10-10-10-10-10-10-10-| 
G|--------------------------|--------------------------| 
D|--------------------------|--------------------------| 
A|--------------------------|--------------------------| 
E|--------------------------|--------------------------| 

    D5 D5 A5 A5 A5 A5 A5 A5    A5 A5 A5 A5 A5 A5 A5 A5   
     '     '     '     '        '     '     '     '      
e|--10-10--5--5--5--5--5--5-|---5--5--5--5--5--5--5--5-| 
B|--10-10--5--5--5--5--5--5-|---5--5--5--5--5--5--5--5-| 
G|--------------------------|--------------------------| 
D|--------------------------|--------------------------| 
A|--------------------------|--------------------------| 
E|--------------------------|--------------------------| 

    A5       A5          A5                                               
     '                 '                 '                 '              
e|---5--------5---------------------------------------------------------| 
B|---5--------5---------------------------------------------------------| 
G|------------------------2---------------------------------------------| 
D|------------------------2---------------------------------------------| 
A|------------------------0---------------------------------------------| 
E|----------------------------------------------------------------------| 

          C5                       
     '     '     '     '     ''''  
e|-------------------------|-----| 
B|-------------------------|-----| 
G|---------5---------------|-----| 
D|---------5---------------|-----| 
A|---------3---------------|-----| 
E|-------------------------|-----| 

Chorus 
(2:20 - 2:35) 
                                             
                E5    E5 E5    E5 E5    E5   
     '        '        '        '            
e|-----------------------------------------| 
B|-----------------------------------------| 
G|-----------------------------------------| 
D|---------------2-----2--2-----2--2-----2-| 
A|---------------2-----2--2-----2--2-----2-| 
E|---------------0-----0--0-----0--0-----0-| 

          E5       E5       G5       G5       G5       G5       G5       G5   
     '                 '                 '                 '                  
e|--------------------------------------------------------------------------| 
B|--------------------------------------------------------------------------| 
G|--------------------------------------------------------------------------| 
D|---------2--------2--------5--------5--------5--------5--------5--------5-| 
A|---------2--------2--------5--------5--------5--------5--------5--------5-| 
E|---------0--------0--------3--------3--------3--------3--------3--------3-| 

          G5       G5       A5       A5       A5       A5       A5       A5   
     '                 '                 '                 '                  
e|--------------------------------------------------------------------------| 
B|--------------------------------------------------------------------------| 
G|---------------------------2--------2--------2--------2--------2--------2-| 
D|---------5--------5--------2--------2--------2--------2--------2--------2-| 
A|---------5--------5--------0--------0--------0--------0--------0--------0-| 
E|---------3--------3-------------------------------------------------------| 

          A5       A5       C5       C5       C5       C5       C5       C5   
     '                 '                 '                 '                  
e|--------------------------------------------------------------------------| 
B|--------------------------------------------------------------------------| 
G|---------2--------2--------5--------5--------5--------5--------5--------5-| 
D|---------2--------2--------5--------5--------5--------5--------5--------5-| 
A|---------0--------0--------3--------3--------3--------3--------3--------3-| 
E|--------------------------------------------------------------------------| 

          C5       C5       E5       E5       E5       E5       E5       E5   
     '                 '                 '                 '                  
e|--------------------------------------------------------------------------| 
B|--------------------------------------------------------------------------| 
G|---------5--------5-------------------------------------------------------| 
D|---------5--------5--------2--------2--------2--------2--------2--------2-| 
A|---------3--------3--------2--------2--------2--------2--------2--------2-| 
E|---------------------------0--------0--------0--------0--------0--------0-| 

          E5       E5       G5       G5       G5       G5       G5       G5   
     '                 '                 '                 '                  
e|--------------------------------------------------------------------------| 
B|--------------------------------------------------------------------------| 
G|--------------------------------------------------------------------------| 
D|---------2--------2--------5--------5--------5--------5--------5--------5-| 
A|---------2--------2--------5--------5--------5--------5--------5--------5-| 
E|---------0--------0--------3--------3--------3--------3--------3--------3-| 

          G5       G5       A5       A5       A5       A5       A5       A5   
     '                 '                 '                 '                  
e|--------------------------------------------------------------------------| 
B|--------------------------------------------------------------------------| 
G|---------------------------2--------2--------2--------2--------2--------2-| 
D|---------5--------5--------2--------2--------2--------2--------2--------2-| 
A|---------5--------5--------0--------0--------0--------0--------0--------0-| 
E|---------3--------3-------------------------------------------------------| 

          A5       A5       C5       C5       C5       C5       C5       C5   
     '                 '                 '                 '                  
e|--------------------------------------------------------------------------| 
B|--------------------------------------------------------------------------| 
G|---------2--------2--------5--------5--------5--------5--------5--------5-| 
D|---------2--------2--------5--------5--------5--------5--------5--------5-| 
A|---------0--------0--------3--------3--------3--------3--------3--------3-| 
E|--------------------------------------------------------------------------| 

       C5 C5                             
     '        '        '        '        
e|-------------------------------------| 
B|-------------------------------------| 
G|------5--5---------------------------| 
D|------5--5---------------------------| 
A|------3--3---------------------------| 
E|-------------------------------------| 

Chorus 
(2:35 - 2:56) 
                                          
                E5 E5    E5 E5    E5 E5   
     '        '        '        '         
e|--------------------------------------| 
B|--------------------------------------| 
G|--------------------------------------| 
D|---------------2--2-----2--2-----2--2-| 
A|---------------2--2-----2--2-----2--2-| 
E|---------------0--0-----0--0-----0--0-| 

          E5       E5       G5       G5       G5       G5       G5       G5   
     '                 '                 '                 '                  
e|--------------------------------------------------------------------------| 
B|--------------------------------------------------------------------------| 
G|--------------------------------------------------------------------------| 
D|---------2--------2--------5--------5--------5--------5--------5--------5-| 
A|---------2--------2--------5--------5--------5--------5--------5--------5-| 
E|---------0--------0--------3--------3--------3--------3--------3--------3-| 

          G5       G5       A5       A5       A5       A5       A5       A5   
     '                 '                 '                 '                  
e|--------------------------------------------------------------------------| 
B|--------------------------------------------------------------------------| 
G|---------------------------2--------2--------2--------2--------2--------2-| 
D|---------5--------5--------2--------2--------2--------2--------2--------2-| 
A|---------5--------5--------0--------0--------0--------0--------0--------0-| 
E|---------3--------3-------------------------------------------------------| 


          A5       A5       C5       C5       C5       C5       C5       C5   
     '                 '                 '                 '                  
e|--------------------------------------------------------------------------| 
B|--------------------------------------------------------------------------| 
G|---------2--------2--------5--------5--------5--------5--------5--------5-| 
D|---------2--------2--------5--------5--------5--------5--------5--------5-| 
A|---------0--------0--------3--------3--------3--------3--------3--------3-| 
E|--------------------------------------------------------------------------| 

          C5       C5       E5       E5       E5       E5       E5       E5   
     '                 '                 '                 '                  
e|--------------------------------------------------------------------------| 
B|--------------------------------------------------------------------------| 
G|---------5--------5-------------------------------------------------------| 
D|---------5--------5--------2--------2--------2--------2--------2--------2-| 
A|---------3--------3--------2--------2--------2--------2--------2--------2-| 
E|---------------------------0--------0--------0--------0--------0--------0-| 

          E5       E5       G5       G5       G5       G5       G5       G5   
     '                 '                 '                 '                  
e|--------------------------------------------------------------------------| 
B|--------------------------------------------------------------------------| 
G|--------------------------------------------------------------------------| 
D|---------2--------2--------5--------5--------5--------5--------5--------5-| 
A|---------2--------2--------5--------5--------5--------5--------5--------5-| 
E|---------0--------0--------3--------3--------3--------3--------3--------3-| 

          G5       G5       A5       A5       A5       A5       A5       A5   
     '                 '                 '                 '                  
e|--------------------------------------------------------------------------| 
B|--------------------------------------------------------------------------| 
G|---------------------------2--------2--------2--------2--------2--------2-| 
D|---------5--------5--------2--------2--------2--------2--------2--------2-| 
A|---------5--------5--------0--------0--------0--------0--------0--------0-| 
E|---------3--------3-------------------------------------------------------| 

          A5       A5       C5       C5       C5       C5       C5       C5   
     '                 '                 '                 '                  
e|--------------------------------------------------------------------------| 
B|--------------------------------------------------------------------------| 
G|---------2--------2--------5--------5--------5--------5--------5--------5-| 
D|---------2--------2--------5--------5--------5--------5--------5--------5-| 
A|---------0--------0--------3--------3--------3--------3--------3--------3-| 
E|--------------------------------------------------------------------------| 

          C5       E5       E5       E5       E5       E5       E5       E5   
     '                 '                 '                 '                  
e|--------------------------------------------------------------------------| 
B|--------------------------------------------------------------------------| 
G|---------5----------------------------------------------------------------| 
D|---------5--------2--------2--------2--------2--------2--------2--------2-| 
A|---------3--------2--------2--------2--------2--------2--------2--------2-| 
E|------------------0--------0--------0--------0--------0--------0--------0-| 

          E5       G5       G5       G5       G5       G5       G5       G5   
     '                 '                 '                 '                  
e|--------------------------------------------------------------------------| 
B|--------------------------------------------------------------------------| 
G|--------------------------------------------------------------------------| 
D|---------2--------5--------5--------5--------5--------5--------5--------5-| 
A|---------2--------5--------5--------5--------5--------5--------5--------5-| 
E|---------0--------3--------3--------3--------3--------3--------3--------3-| 

          G5       A5       A5       A5       A5       A5       A5       A5   
     '                 '                 '                 '                  
e|--------------------------------------------------------------------------| 
B|--------------------------------------------------------------------------| 
G|------------------2--------2--------2--------2--------2--------2--------2-| 
D|---------5--------2--------2--------2--------2--------2--------2--------2-| 
A|---------5--------0--------0--------0--------0--------0--------0--------0-| 
E|---------3----------------------------------------------------------------| 

       A5    C5 C5    C5 C5    C5        
     '        '        '        '        
e|-------------------------------------| 
B|-------------------------------------| 
G|------2-----5--5-----5--5-----5------| 
D|------2-----5--5-----5--5-----5------| 
A|------0-----3--3-----3--3-----3------| 
E|-------------------------------------| 


Solo 
(2:56 - 3:12) 

       '         '         '         '        ''''    '     '     '     '     
e|------------------------------------------|-----|-------------------------| 
B|------------------------------------------|-----|-------------------------| 
G|------------------------------------------|-----|-------------------------| 
D|-------------------------------------2s4~-|-----|-----------4~------------| 
A|------------------------------------------|-----|-------------------------| 
E|------------------------------------------|-----|-------------------------| 

     '                 '              '                 '                 
e|----------------------------------------------------------------------| 
B|----------------------------------------------------------------------| 
G|----------------------------------------------------------------------| 
D|--------------------------7~----------------------9~------------------| 
A|----------------------------------------------------------------------| 
E|----------------------------------------------------------------------| 

     '                 '                 '                 '                  
e|--------------------------------------------------------------------------| 
B|--------------------------------------------------------------------------| 
G|-----------------------------------------------------------------------9~-| 
D|--------------------------7~----------------------------------------------| 
A|--------------------------------------------------------------------------| 
E|--------------------------------------------------------------------------| 

     '                 '                 '                 '                 
e|-------------------------------------------------------------------------| 
B|-------------------------------------------------------------------------| 
G|--------9~-------9~-------9~---------------------------------------------| 
D|-------------------------------------------------------------------------| 
A|-------------------------------------------------------------------------| 
E|-------------------------------------------------------------------------| 

      '       '       '       '      
e|---------------------------------| 
B|---------------------------------| 
G|----------11~--------------------| 
D|---------------------------------| 
A|---------------------------------| 
E|---------------------------------| 

      '           '           '           '          
e|-------------------------------------------------| 
B|-------------------------------------------------| 
G|------------------14~----------------------------| 
D|-------------------------------------------------| 
A|-------------------------------------------------| 
E|-------------------------------------------------| 

      '           '           '           '          ''''  
e|-------------------------------------------------|-----| 
B|-------------------------------------------------|-----| 
G|------------------17~----------------------------|-----| 
D|-------------------------------------------------|-----| 
A|-------------------------------------------------|-----| 
E|-------------------------------------------------|-----| 

Pre-Chorus 
(3:12 - 3:19) 
                                                                               
                E5                                    D5                       
     '        '        '        '          '        '        '        '        
e|-------------------------------------|-------------------------------------| 
B|-------------------------------------|-------------------------------------| 
G|-------------------------------------|---------------7---------------------| 
D|---------------2---------------------|---------------7---------------------| 
A|---------------2---------------------|---------------5---------------------| 
E|---------------0---------------------|-------------------------------------| 

   ''''  ''''  ''''  
e|-----|-----|-----| 
B|-----|-----|-----| 
G|-----|-----|-----| 
D|-----|-----|-----| 
A|-----|-----|-----| 
E|-----|-----|-----| 

Chorus 
(3:19 - 3:49) 
                                          
                E5 E5    E5 E5    E5 E5   
     '        '        '        '         
e|--------------------------------------| 
B|--------------------------------------| 
G|--------------------------------------| 
D|---------------2--2-----2--2-----2--2-| 
A|---------------2--2-----2--2-----2--2-| 
E|---------------0--0-----0--0-----0--0-| 

          E5       E5       D5       D5       D5       D5       D5       D5   
     '                 '                 '                 '                  
e|--------------------------------------------------------------------------| 
B|--------------------------------------------------------------------------| 
G|---------------------------7--------7--------7--------7--------7--------7-| 
D|---------2--------2--------7--------7--------7--------7--------7--------7-| 
A|---------2--------2--------5--------5--------5--------5--------5--------5-| 
E|---------0--------0-------------------------------------------------------| 

          D5       D5       A5       A5       A5       A5       A5       A5   
     '                 '                 '                 '                  
e|--------------------------------------------------------------------------| 
B|--------------------------------------------------------------------------| 
G|---------7--------7--------2--------2--------2--------2--------2--------2-| 
D|---------7--------7--------2--------2--------2--------2--------2--------2-| 
A|---------5--------5--------0--------0--------0--------0--------0--------0-| 
E|--------------------------------------------------------------------------| 

          A5       A5       C5       C5       C5       C5       C5       C5   
     '                 '                 '                 '                  
e|--------------------------------------------------------------------------| 
B|--------------------------------------------------------------------------| 
G|---------2--------2--------5--------5--------5--------5--------5--------5-| 
D|---------2--------2--------5--------5--------5--------5--------5--------5-| 
A|---------0--------0--------3--------3--------3--------3--------3--------3-| 
E|--------------------------------------------------------------------------| 

          C5       C5       E5       E5       E5       E5       E5       E5   
     '                 '                 '                 '                  
e|--------------------------------------------------------------------------| 
B|--------------------------------------------------------------------------| 
G|---------5--------5-------------------------------------------------------| 
D|---------5--------5--------2--------2--------2--------2--------2--------2-| 
A|---------3--------3--------2--------2--------2--------2--------2--------2-| 
E|---------------------------0--------0--------0--------0--------0--------0-| 

          E5       E5       G5       G5       G5       G5       G5       G5   
     '                 '                 '                 '                  
e|--------------------------------------------------------------------------| 
B|--------------------------------------------------------------------------| 
G|--------------------------------------------------------------------------| 
D|---------2--------2--------5--------5--------5--------5--------5--------5-| 
A|---------2--------2--------5--------5--------5--------5--------5--------5-| 
E|---------0--------0--------3--------3--------3--------3--------3--------3-| 

          G5       G5       A5       A5       A5       A5       A5       A5   
     '                 '                 '                 '                  
e|--------------------------------------------------------------------------| 
B|--------------------------------------------------------------------------| 
G|---------------------------2--------2--------2--------2--------2--------2-| 
D|---------5--------5--------2--------2--------2--------2--------2--------2-| 
A|---------5--------5--------0--------0--------0--------0--------0--------0-| 
E|---------3--------3-------------------------------------------------------| 

          A5       A5       C5       C5       C5       C5       C5       C5   
     '                 '                 '                 '                  
e|--------------------------------------------------------------------------| 
B|--------------------------------------------------------------------------| 
G|---------2--------2--------5--------5--------5--------5--------5--------5-| 
D|---------2--------2--------5--------5--------5--------5--------5--------5-| 
A|---------0--------0--------3--------3--------3--------3--------3--------3-| 
E|--------------------------------------------------------------------------| 

          C5       C5       E5       E5       E5       E5       E5       E5   
     '                 '                 '                 '                  
e|--------------------------------------------------------------------------| 
B|--------------------------------------------------------------------------| 
G|---------5--------5-------------------------------------------------------| 
D|---------5--------5--------2--------2--------2--------2--------2--------2-| 
A|---------3--------3--------2--------2--------2--------2--------2--------2-| 
E|---------------------------0--------0--------0--------0--------0--------0-| 
    
          E5       E5       G5       G5       G5       G5       G5       G5   
     '                 '                 '                 '                  
e|--------------------------------------------------------------------------| 
B|--------------------------------------------------------------------------| 
G|--------------------------------------------------------------------------| 
D|---------2--------2--------5--------5--------5--------5--------5--------5-| 
A|---------2--------2--------5--------5--------5--------5--------5--------5-| 
E|---------0--------0--------3--------3--------3--------3--------3--------3-| 

          G5       G5       A5       A5       A5       A5       A5       A5   
     '                 '                 '                 '                  
e|--------------------------------------------------------------------------| 
B|--------------------------------------------------------------------------| 
G|---------------------------2--------2--------2--------2--------2--------2-| 
D|---------5--------5--------2--------2--------2--------2--------2--------2-| 
A|---------5--------5--------0--------0--------0--------0--------0--------0-| 
E|---------3--------3-------------------------------------------------------| 
      
          A5       A5       C5       C5       C5       C5       C5       C5   
     '                 '                 '                 '                  
e|--------------------------------------------------------------------------| 
B|--------------------------------------------------------------------------| 
G|---------2--------2--------5--------5--------5--------5--------5--------5-| 
D|---------2--------2--------5--------5--------5--------5--------5--------5-| 
A|---------0--------0--------3--------3--------3--------3--------3--------3-| 
E|--------------------------------------------------------------------------| 
          
          C5       C5       E5       E5       E5       E5       E5       E5   
     '                 '                 '                 '                  
e|--------------------------------------------------------------------------| 
B|--------------------------------------------------------------------------| 
G|---------5--------5-------------------------------------------------------| 
D|---------5--------5--------2--------2--------2--------2--------2--------2-| 
A|---------3--------3--------2--------2--------2--------2--------2--------2-| 
E|---------------------------0--------0--------0--------0--------0--------0-| 
      
          E5       E5       G5       G5       G5       G5       G5       G5   
     '                 '                 '                 '                  
e|--------------------------------------------------------------------------| 
B|--------------------------------------------------------------------------| 
G|--------------------------------------------------------------------------| 
D|---------2--------2--------5--------5--------5--------5--------5--------5-| 
A|---------2--------2--------5--------5--------5--------5--------5--------5-| 
E|---------0--------0--------3--------3--------3--------3--------3--------3-| 
                    
          G5       G5       A5       A5       A5       A5       A5       A5   
     '                 '                 '                 '                  
e|--------------------------------------------------------------------------| 
B|--------------------------------------------------------------------------| 
G|---------------------------2--------2--------2--------2--------2--------2-| 
D|---------5--------5--------2--------2--------2--------2--------2--------2-| 
A|---------5--------5--------0--------0--------0--------0--------0--------0-| 
E|---------3--------3-------------------------------------------------------| 
                  
          A5       A5       C5       C5       C5       C5       C5       C5   
     '                 '                 '                 '                  
e|--------------------------------------------------------------------------| 
B|--------------------------------------------------------------------------| 
G|---------2--------2--------5--------5--------5--------5--------5--------5-| 
D|---------2--------2--------5--------5--------5--------5--------5--------5-| 
A|---------0--------0--------3--------3--------3--------3--------3--------3-| 
E|--------------------------------------------------------------------------| 
             
       C5 C5                             
     '        '        '        '        
e|-------------------------------------| 
B|-------------------------------------| 
G|------5--5---------------------------| 
D|------5--5---------------------------| 
A|------3--3---------------------------| 
E|-------------------------------------| 

Outro 
(3:49 - 4:02) 
                                          
                E5 E5    E5 E5    E5 E5   
     '        '        '        '         
e|--------------------------------------| 
B|--------------------------------------| 
G|--------------------------------------| 
D|---------------2--2-----2--2-----2--2-| 
A|---------------2--2-----2--2-----2--2-| 
E|---------------0--0-----0--0-----0--0-| 
                   
          E5       E5       G5       G5       G5       G5       G5       G5   
     '                 '                 '                 '                  
e|--------------------------------------------------------------------------| 
B|--------------------------------------------------------------------------| 
G|--------------------------------------------------------------------------| 
D|---------2--------2--------5--------5--------5--------5--------5--------5-| 
A|---------2--------2--------5--------5--------5--------5--------5--------5-| 
E|---------0--------0--------3--------3--------3--------3--------3--------3-| 
                                                  
          G5       G5       A5       A5       A5       A5       A5       A5   
     '                 '                 '                 '                  
e|--------------------------------------------------------------------------| 
B|--------------------------------------------------------------------------| 
G|---------------------------2--------2--------2--------2--------2--------2-| 
D|---------5--------5--------2--------2--------2--------2--------2--------2-| 
A|---------5--------5--------0--------0--------0--------0--------0--------0-| 
E|---------3--------3-------------------------------------------------------| 
                                                            
          A5       A5       C5       C5       C5       C5       C5       C5   
     '                 '                 '                 '                  
e|--------------------------------------------------------------------------| 
B|--------------------------------------------------------------------------| 
G|---------2--------2--------5--------5--------5--------5--------5--------5-| 
D|---------2--------2--------5--------5--------5--------5--------5--------5-| 
A|---------0--------0--------3--------3--------3--------3--------3--------3-| 
E|--------------------------------------------------------------------------| 
                                                         
       C5 C5    E5                                         
     '        '        '        '        ''''  ''''  ''''  
e|-------------------------------------|-----|-----|-----| 
B|-------------------------------------|-----|-----|-----| 
G|------5--5---------------------------|-----|-----|-----| 
D|------5--5-----2---------------------|-----|-----|-----| 
A|------3--3-----2---------------------|-----|-----|-----| 
E|---------------0---------------------|-----|-----|-----| 

No Guitar (4:02 - 4:07) 
                   
                   
   ''''  ''''  ''  
e|-----|-----|---| 
B|-----|-----|---| 
G|-----|-----|---| 
D|-----|-----|---| 
A|-----|-----|---| 
E|-----|-----|---| 


************************************ 

| ~  Vibrato 
| s  slide 

************************************ 
  

cifra enviadasem correções
enviado porenviada por:carlluz
Tom: E ver outros instrumentos
Talo Tom DD(um tom abaixo)
Talo Tom D#D#(meio tom abaixo)
Talo Tom EE(tom original)
Talo Tom FF(meio tom acima)
Talo Tom F#F#(um tom acima)
Subir 1 tomSubir 1/2Descer 1 tomDescer 1/2
top 5 | zen cafe
top rock'n roll
Outras músicas do artista letras do(a) Zen Cafe
1.
Stop
2.
Talo
Top cifras »Top artistas »
Petaxxon Comunicação Online
Cifras.com.br - Melhor e mais completo site de cifras e tablaturas do Brasil
Mais de 1 milhão de acordes de músicas cadastradas desde 2003
As informações contidas no nosso site são colaborações de seus usuários e podem conter erros, sendo assim, não nos responsabilizamos sobre nenhuma destas.
close
menos
mais
close
Cor dos acordes:

Cor da letra:

 

save
close
close
 
redimensionar