Cifras e Tablaturas
Zoé

Zoé

Via Lactea

Cifras Cancelar Versão de Impressão

Zoé - Via Lactea

Tom:

  			Aqi les tengo el intro de la cancion de Via lactea de ZOE 

INTRO 
1--------------------------------------------------------- 
2--------------------------------------------------------- 
3--------------------------------------------------------- 
4---------------------------7-7-5-7-7-7------------------- 
5-7-7-9-9-10-10-9----------------------------------------- 
6-----------------8-8-7-8-8-8----------------------------- 

ESTO SE REPITE 2 VECES 

LUEGO ES EL PEQUEÑO SOLO QUE VA ASI 

1 
2-12-12-12-12-13-11-12-12-12-12-8-7-7-7--------------------- 
3----------------------------------------------------------- 
4----------------------------------------------------------- 
5----------------------------------------------------------- 
6----------------------------------------------------------- 

ESTO ES TODO GRAXIAS 
    	
fixar
fixar inscrever-se

enviado porenviado por: victborges
cifra enviadaCorrigida por: sem correções
logo top cifrasComente
ico música do artistaMúsicas deste artista
ico curtiuCurtiu?
ico destaqueDestaque
Petaxxon Comunicação Online

Cifras.com.br - Melhor e mais completo site de cifras e tablaturas do Brasil Mais de 1 milhão de acordes de músicas cadastradas desde 2003
As informações contidas no nosso site são colaborações de seus usuários e podem conter erros, sendo assim, não nos responsabilizamos sobre nenhuma destas.

close
menos
mais
close
Cor dos acordes:

Cor da letra:

close
Alinhar acordes a direita Alinhar acordes a esquerda Alinhar acordes em baixo Alinhar acordes no topo
close
  Mostrar todos os acordes Esconder acordes muito fáceis Esconder acordes fáceis Esconder acordes intermediários
redimensionar
glossário