Cifras e Tablaturas
Nasum

Nasum

This Is

Cifras Cancelar Versão de Impressão Print

Nasum - This Is

Tom: C#

  • 0:00 / 0:00
  			C#|----------------|----------------|----------------|----------------| 
G#|----------------|----------------|----------------|----------------| 
E |----------------|----------------|----------------|----------------| 
B |--0--1--3--1----|--3--1--4--3----|--0--1--3--1----|--3--1--4--3----| 
F#|--0--1--3--1----|--3--1--4--3----|--0--1--3--1----|--3--1--4--3----| 
B |--0--1--3--1----|--3--1--4--3----|--0--1--3--1----|--3--1--4--3----| 

                                                     P.M.------------| 
C#|----------------|----------------|----------------|----------------| 
G#|----------------|----------------|----------------|----------------| 
E |----------------|----------------|----------------|----------------| 
B |--0--1--3--1----|--3--1--4--3----|--0--1--3--1----|--4.-4.-4.-4.---| 
F#|--0--1--3--1----|--3--1--4--3----|--0--1--3--1----|--4.-4.-4.-4.---| 
B |--0--1--3--1----|--3--1--4--3----|--0--1--3--1----|--4.-4.-4.-4.---| 


C#|----------------------------|----------------------------| 
G#|----------------------------|----------------------------| 
E |----------------------------|----------------------------| 
B |--0--1--3--1--3--1--4--3----|--0--1--3--1--3--1--4--3----| 
F#|--0--1--3--1--3--1--4--3----|--0--1--3--1--3--1--4--3----| 
B |--0--1--3--1--3--1--4--3----|--0--1--3--1--3--1--4--3----| 


C#|----------------------------|----------------------------|----------------| 
G#|----------------------------|----------------------------|----------------| 
E |----------------------------|----------------------------|----------------| 
B |--0--1--3--1--3--1--4--3----|--0--1--3--1--3--1--4--3----|--0--1--3--1----| 
F#|--0--1--3--1--3--1--4--3----|--0--1--3--1--3--1--4--3----|--0--1--3--1----| 
B |--0--1--3--1--3--1--4--3----|--0--1--3--1--3--1--4--3----|--0--1--3--1----| 


C#|----------------|----------------|----------------|----------------| 
G#|----------------|----------------|----------------|----------------| 
E |----------------|----------------|----------------|----------------| 
B |--3--1--4--3----|--0--1--3--1----|--3--1--4--3----|--0--1--3--1----| 
F#|--3--1--4--3----|--0--1--3--1----|--3--1--4--3----|--0--1--3--1----| 
B |--3--1--4--3----|--0--1--3--1----|--3--1--4--3----|--0--1--3--1----| 

                                    P.M.------------| 
C#|----------------|----------------|----------------|----------------------------| 
G#|----------------|----------------|----------------|----------------------------| 
E |----------------|----------------|----------------|----------------------------| 
B |--3--1--4--3----|--0--1--3--1----|--4.-4.-4.-4.---|--0--1--3--1--3--1--4--3----| 
F#|--3--1--4--3----|--0--1--3--1----|--4.-4.-4.-4.---|--0--1--3--1--3--1--4--3----| 
B |--3--1--4--3----|--0--1--3--1----|--4.-4.-4.-4.---|--0--1--3--1--3--1--4--3----| 


C#|----------------------------|----------------------------| 
G#|----------------------------|----------------------------| 
E |----------------------------|----------------------------| 
B |--0--1--3--1--3--1--4--3----|--0--1--3--1--3--1--4--3----| 
F#|--0--1--3--1--3--1--4--3----|--0--1--3--1--3--1--4--3----| 
B |--0--1--3--1--3--1--4--3----|--0--1--3--1--3--1--4--3----| 


C#|----------------------------|----------------| 
G#|----------------------------|----------------| 
E |----------------------------|----------------| 
B |--0--1--3--1--3-----1--3----|--0.------------| 
F#|--0--1--3--1--3-----1--3----|--0.------------| 
B |--0--1--3--1--3-----1--3----|--0.------------| 


********************************************* 
  
| .    - staccato 
| P.M. - Palm mute  

********************************************* 
    	

enviado porenviado por: hebealmeida
cifra enviadaCorrigida por: sem correções
afinação

Toque com outra afinação
Modifique a corda abaixo ou utilize um dos presets.

Dacorde
Aacorde
braço violão
Gacorde
Bacorde
logo top cifrasComente
ico música do artistaMúsicas deste artista
ico curtiuCurtiu?
ico destaqueDestaque
Petaxxon Comunicação Online

Cifras.com.br - Melhor e mais completo site de cifras e tablaturas do Brasil Mais de 1 milhão de acordes de músicas cadastradas desde 2003
As informações contidas no nosso site são colaborações de seus usuários e podem conter erros, sendo assim, não nos responsabilizamos sobre nenhuma destas.

close
menos
mais
close
Cor dos acordes:

Cor da letra:

close
Alinhar acordes a direita Alinhar acordes a esquerda Alinhar acordes em baixo Alinhar acordes no topo
close
  Mostrar todos os acordes Esconder acordes muito fáceis Esconder acordes fáceis Esconder acordes intermediários
redimensionar
glossário