Cifras e Tablaturas
Cifras Cancelar Versão de Impressão
cifras

Jacob do Bandolim - Brejeiro

fixar na tela  
Exibindo: vídeo-aula ver clipes redimensionar
  Parte A: Em D 

d|-5--2-2--4--4--0-0-2--2---------|-5--2-2--4--4--0-0-2--2--------| 
B|-0--0-0--1--1--1-1-0--0--0-0-3--|-0--0-0--1--1--1-1-0--0--0-0-3-| 
G|-0--0-0--2--2--2-2-0--0--0-0-2--|-0--0-0--2--2--2-2-0--0--0-0-2-| 
D|-0--0-0--0--0--0-0-0--0--2-2-4--|-0--0-0--0--0--0-0-0--0--2-2-4-| 

d|--9-----9-7------------7-----7-5------------5---4-2-0-----------0-| 
B|------7------8-7-----------5------7-5-----------------1-0---------| 
G|-----------------9-8-9----------------7-6-7---------------2-1-2---| 
D|------------------------------------------------------------------| 

d|---------| 
B|-----0---| 
G|---2---0-| 
D|---------| 

Parte B: 

d|---7--12-11--9-7-9--11-9-7-----------------------7--12-11--9-7-9-| 
B|----------------------------8-7----------------------------------| 
G|--------------------------------9--7-6--------6------------------| 
D|---------------------------------------9-7-9---------------------| 

d|---11--11-9-7-6-----------------------7--12-11--9-7-9--11-9-7---| 
B|----------------7-6---------------------------------------------| 
G|---------------------7-6----------------------------------------| 
D|-------------------------9-7-6-4-5-7----------------------------| 

d|--------------------------4-5-3-4------2-0-----------------------0--| 
B|---8-7----------------------------1-2---------2-0------------0-2----| 
G|-------9--7-6--------6---------------------3------0----0-1-2--------| 
D|--------------9-7--9---------------------------------4--------------| (2x) 

Parte Especial: 


d|----0-0-0---0-0-0---0-0-0---0-0-0---0-0-0---0-0-0---0-0-0---0-0-0-| 
B|------------------------------------------------------------------| 
G|--0-------4-------2---------------0-------3-------2---------------| 
D|--------------------------4-------------------------------4-------| 


Parte A: 

d|---5-1-1-4--4--0-0-----------|---5-1-1-4--4--0-0-----------| 
B|---------1--1------4-4-----3-|-------------------4-4-----3-| 
G|-------------------3-3-3-3-2-|---------1--1------3-3-3-3-2-| 
D|-----------------------5-5---|-----------------------5-5---| 

d|---5-----5-3-1-0-------7-----7---5-4-1-0---0-5---3-1-0--------------------| 
B|-------3---------1-0-1----5-------------2-------------1-------------------| 
G|---------------------------------------------------------3-2-1-2----2-3-0-| 
D|-----------------------------------------------------------------0--------| 


Parte C: 

d|---3--8-7--5-3-5--7-5-3-----------------------3--8-7--5-3-5--7-7-----| 
B|-------------------------4-3-----------------------------------------| 
G|-----------------------------5--3-2--------2-------------------------| 
D|------------------------------------5--3-5---------------------------| 

d|---5-3-2-------------------------3--8-7--5-3-5--7-5-3----------------| 
B|---------3-2-------------------------------------------4-3-----------| 
G|-------------3-2-------------------------------------------5--3-2----| 
D|-----------------5-3-2-0-1-2-3---------------------------------------| 

d|--------------0-1---0------------------------------------| 
B|------------------2--------1-----------------------------| 
G|----------2-----------1-2----3----2-0------------0-2-3---| 
D|---5--3-5----------------------4------1--0-1-2-3---------| (2x) 

Parte Especial 2: 

d|----0-0-0---0-0-0---0-0-0---0-0-0---0-0-0---0-0-0---0-0-0---0-0-0-| 
B|------------------------------------------------------------------| 
G|--0-------3-------2---------------0-------4-------2---------------| 
D|--------------------------4-------------------------------4-------| 

Parte Final: 

d|-5--2-2--4--4--0-0-2--2---------|-5--2-2--4--4--0-0-2--2--------| 
B|-0--0-0--1--1--1-1-0--0--0-0-3--|-0--0-0--1--1--1-1-0--0--0-0-3-| 
G|-0--0-0--2--2--2-2-0--0--0-0-2--|-0--0-0--2--2--2-2-0--0--0-0-2-| 
D|-0--0-0--0--0--0-0-0--0--2-2-4--|-0--0-0--0--0--0-0-0--0--2-2-4-| 

d|--9-----9-7------------7-----7-5------------5---4-2-0-----------0-| 
B|------7------8-7-----------5------7-5-----------------1-0---------| 
G|-----------------9-8-9----------------7-6-7---------------2-1-2---| 
D|------------------------------------------------------------------| 

d|----------5-| 
B|-----0----0-| 
G|---2---0--0-| 
D|----------0-| 
  

cifra enviadasem correções
enviado porenviada por:Acelot

Toque com outra afinação
Modifique a corda abaixo ou utilize um dos presets.

D
A
Eacorde
G
B
E
top 5 | jacob do bandolim
top velha guarda
Outras músicas do artista letras do(a) Jacob do Bandolim
Top cifras »Top artistas »
Petaxxon Comunicação Online
Cifras.com.br - Melhor e mais completo site de cifras e tablaturas do Brasil
Mais de 1 milhão de acordes de músicas cadastradas desde 2003
As informações contidas no nosso site são colaborações de seus usuários e podem conter erros, sendo assim, não nos responsabilizamos sobre nenhuma destas.
close
menos
mais
close
Cor dos acordes:

Cor da letra:

 

save
close
close
 
redimensionar