Cifras e Tablaturas
Cifras Cancelar Versão de Impressão
cifras

Jacob do Bandolim - Brejeiro

fixar na tela  
Exibindo: vídeo-aula ver clipes redimensionar
  
Parta A:

e|---------------------------------------------------------------|
B|-------3---------3---------1-----------3-----------------------| 
G|-----0---------0---------0----------2--------------------------| 
D|----------0---------0---------0-----------0--------------------| (4x)
A|------------2---------0----------------------------------------| 
E|--3------------------------------2-----------------------------|




e|---------------------------------------------------------------|
B|---------------------4--------4-----------0--------------------| 
G|--4-2----------------2--------4-----------0--------------------| 
D|-------5-4-2-------4---------4----------2----------------------| 
A|-------------5-2--------2-0------0-----------------------------| 
E|------------------------------------3-----------2-0-2-3-4------|


e|---------------------------------------------------------------|
B|--------2-----------2------------3-----------3-----------3-----| 
G|--------2-----------2------------2-----------2--------4--------|  
D|-----2-----------2-----------0------0-----4-------5------------| 
A|--0--------0---------------------------3-----------------------| 
E|--------------3--------3--2------------------------------------| 


e|---------------------------------------------------------------|
B|-----------3------------1------------1------------0------------| 
G|--------4------------0------------0------------0---------------| 
D|--5--3---------3--2---------2--1---------1--0------------------| 
A|---------------------------------------------------------------| 
E|---------------------------------------------------------------|


e|-------------------------|
B|--------3----------------|	   
G|--------2----------------| 
D|-----4-------------------|
A|--3-------------2~-------| 
E|-------------------------|

Parte B:

e|---------------------------------------------------------------|
B|---------------------------------------------------------------| 
G|-----------------------2p0---------0---------------------------| 
D|-----------0--2--3--4--------4--2-----4--2---0---4--2p0--------| 
A|--0--2--4-------------------------------------------------4---2| 
E|---------------------------------------------------------------|


e|---------------------------------------------------------------|
B|------------3-----------------0------------2-------------------| 
G|------------2-----------------0------------0-------------------| 
D|------------0--------------2-----2------2-----2----------------| 
A|--0----------------------------------0-------------------------| 
E|-----3--2--------2--1--0---------------------------------------|


e|---------------------------------------------------------------|
B|--------5------------5------------2------------2---------------|   
G|-------4------------4------------2------------2----------------| 
D|-----4-----4------4-----4------2-----2------2-----2------------| 
A|--5------------5-----------------------------------------------| 
E|-----------------------------2-----------2---------------------|


e|---------------------------------------------------------------|
B|--------0--------------0------2---2----------------------------| 
G|--------1--------------1------2---0----------------------------| 
D|-----0-----0-------0------0---2---2----------------------------|    
A|----------------------------------0----------------------------| 
E|--1-------------1-------------2--------------------------------|


e|-----------------------------------------------------------------|
B|-----------------------------------------------------------------|
G|----------2p0--------0-------------------------------------------|
D|-------4-------4--2-----4--2--0--4--2--0-----2p0-----------------|
A|------------------------------------------4----------------------|
E|-----------------------------------------------------------------|



e|----------------------------------------|
B|------------3-3---------------0---------| 
G|------------2-2------------2--0---------| 
D|------------0-0------------2-----2------| 
A|----------------------------------------| 
E|-----3--2--------2--1--0----------------|

e|--------------------------------------------------0-|
B|-------2------2-----2-----3-------3-----3-----2---3-|
G|-------3------3-----3-----4-------4-----4-----0---2-|
D|-------2------2-----2-----4-------4-----2-----2---0-|
A|----0-----------------0-2----2-0-----------0--------|
E|-----------2-----2-------------------3--------------|

Interlude:


e|---------------------------------------------------------------|
B|---------3-----------3-----------1-----------1-----------------| 
G|------3----------3------------2-----------2--------------------| (8x)
D|-----------0------------0-----------0-----------0--------------| 
A|--------------1------------0-----------------------------------| 
E|---3-----------------------------------2-----------------------|

e|---------------------------------------------------------------|
B|------3--------3--------4----------4------5-----5----3----3----| 
G|------4--------4--------3----------5------2-----2----5----5----| 
D|---5-----5--3-----3-----5----------5------2-----2----4----4----| 
A|---------------------6-----5--3-------4-----4------5--- 5------| 
E|---------------------------------------------------------------|

e|------------------------------------------------------------------|
B|------------------------------------------------------------------| 
G|-3-3-2-3-5-3-2---0------------------------------------------------| 
D|---------------4-----1-0-1-3-1-0---0------------------------------| 
A|---------------------------------3------1h0-------0---------------| 
E|--------------------------------------------3-2-3---2-3-----------|

Parte C:


e|-----------------------------------------------------------------|
B|----6--6-------6--------6---6--------6---------------------------|
G|----7--7-------7--------8---8--------8---------------------------| 
D|----5--5-------5--------7---7--------7---------------------------|
A|------------------------8-------8--------------------------------| 
E|----6----6-------------------------------------------------------|

e|---------------------------------------------------------------|
B|--6--6-------6--------6---6--------6---------------------------| 
G|--7--7-------7--------8---8--------8---------------------------| 
D|--5--5-------5--------7---7--------7---------------------------| 
A|----------------------8-------8--------------------------------| 
E|--6----6-------------------------------------------------------|

e|------------------------1--------------------------------------| 
B|--6--6-------6----------3--------------------------2--------1--| 
G|--7--7-------7----------2---2-0--------------------2--------2--| 
D|--5--5-------5----------0-------3-2-0--------------2--------1--| 
A|--------------------------------------3-4-1-0------------------| 
E|--6----6---------------------------------------4-3----2--1-----|

e|---------------------------------------------------------------|
B|--6--6-------6--------6---6--------6---------------------------| 
G|--7--7-------7--------8---8--------8---------------------------| 
D|--5--5-------5--------7---7--------7---------------------------| 
A|----------------------8-------8--------------------------------| 
E|--6----6-------------------------------------------------------|

e|----------------------------------------------------------------|
B|--6--6-------6--------6---6--------6---6------------------------|
G|--7--7-------7--------8---8--------8---8------------------------|
D|--5--5-------5--------7---7--------7---7------------------------|
A|----------------------8-------8---------------------------------|
E|--6----6--------------------------------------------------------|

e|------------------------------------------6---------------------|
B|-------------------3-----3-----4----------6------------6----6---| 
G|-------------------2-----3-----3----------5------------5----7---| 
D|--0-1-3-4-1-0------4-----------5--5--------------------3----5---| 
A|--------------4-3----3-1---0-6------------------0---------------| 
E|-----------------------------------------------------5------6---|
 
  

top 5 | jacob do bandolim
top velha guarda
Outras músicas do artista letras do(a) Jacob do Bandolim
Top cifras »Top artistas »
Petaxxon Comunicação Online
Cifras.com.br - Melhor e mais completo site de cifras e tablaturas do Brasil
Mais de 1 milhão de acordes de músicas cadastradas desde 2003
As informações contidas no nosso site são colaborações de seus usuários e podem conter erros, sendo assim, não nos responsabilizamos sobre nenhuma destas.
close
menos
mais
close
Cor dos acordes:

Cor da letra:

 

save
close
close
 
redimensionar