Cifras e Tablaturas
Factory 81

Factory 81

Nanu

Cifras Cancelar Versão de Impressão Print

Factory 81 - Nanu

Tom:

  			
Band: 
 
CD: Mankind
Tabbed by: BlindedRhythm
E-mail: [email protected]

Tuning: Drop C (C G C F)

Intro
|---------------------------------|
|---------------------------------|
|-------5-5-5-------8-8-8-8-6-6-6-|
|-0-0-0-------6-6-6---------------|x8

|-----|
|-----|
|-----|
|-0~~-|

Verse
|--------------------|
|--------------------|
|-----5--------5-----|
|-5-6---6--5-6---6-1-|x2

|-----------------------------------|
|-----------------------------------|
|-----5-----------------------5-----|
|-5-6---6-0-0--0-0--0-0-0-5-6---6-1-|x2

Chorus
|---------------------------------------------------------------|
|---------------------------------------------------------------|
|-----5-5/6-6--------------------------5-5/6-6------------------|
|-0-0---------6-6-6-3-3-3-3-3-3-3--0-0---------6-6-6-6-6-3--3-1-|

|-----|
|-----|
|-----|
|-0~~-|

Verse
|--------------------|
|--------------------|
|-----5--------5-----|
|-5-6---6--5-6---6-1-|x2

|-------------------------|
|-------------------------|
|-----5-------------------|
|-5-6---6-0-0--0-0--0-0-0-|x4

Play Chorus twice this time

Interlude
|--------------------------------------|
|--------------------------------------|
|--------------------------------------|
|-0-1-0-0-0-0-1-0-0-0-0-1-0-0-0-0-/5-5-|x6

The guitar plays the chorus by him self and bass comes in at the 
end the first chorus like this:
|--------------|
|--------------|
|--------------|
|-6-6-6-3--3-1-|
Repeat the chorus twice again then hold an open on the low C
The Bridge is the same as the intro and it's played 4 times but on
the 4th time play it like this:
|---------------|
|---------------|
|-------5-5-5---|
|-0-0-0-------6-|

Outro
|---------------------------------|
|---------------------------------|
|-------5-5-5-------8-8-8-8-6-6-6-|
|-0-0-0-------6-6-6---------------|x11

|----------------------|
|----------------------|
|----5----8------------|
|-0----6-----0-6-5-3-0-|

    	
fixar
fixar inscrever-se

enviado porenviado por: anônimo
cifra enviadaCorrigida por: sem correções
logo top cifrasComente
ico música do artistaMúsicas deste artista
ico curtiuCurtiu?
ico destaqueDestaque
Petaxxon Comunicação Online

Cifras.com.br - Melhor e mais completo site de cifras e tablaturas do Brasil Mais de 1 milhão de acordes de músicas cadastradas desde 2003
As informações contidas no nosso site são colaborações de seus usuários e podem conter erros, sendo assim, não nos responsabilizamos sobre nenhuma destas.

close
menos
mais
close
Cor dos acordes:

Cor da letra:

close
Alinhar acordes a direita Alinhar acordes a esquerda Alinhar acordes em baixo Alinhar acordes no topo
close
  Mostrar todos os acordes Esconder acordes muito fáceis Esconder acordes fáceis Esconder acordes intermediários
redimensionar
glossário