Cifras e Tablaturas
Factory 81

Factory 81

Nanu

Cifras Cancelar Versão de Impressão Print

Factory 81 - Nanu

Tom: C

  			Dropped C tuning 
/=slide up  
*=palm mute 
X=rake or palm mute the open B5 chord 
                                         
Riff 1: w/ wah                     Riff 2: wah off        
D|-------------------------------| D|-------------------------------| 
A|-------------------------------| A|-------------------------------| 
F|-------------------------------| F|-------------------------------| 
C|-------------------------------| C|0-0-0-7-7-7-6-6-6-101010108-8-8| 
G|------5-5-5-------8-8-8-8-6-6-6| G|0-0-0-5-5-5-6-6-6-8-8-8-8-6-6-6| 
C|0-0-0-------6-6-6--------------| C|0-0-0-------6-6-6--------------| 
  * * * * * * * * * * * * * * * * 
Riff 3            2X                       2X(On the 1st verse and play up to the \ 
                                             on the 2nd verse and play that part 4X) 
D|---------------|-----------------------|---------------------------\-----------| 
A|---------------|-----------------------|---------------------------\-----------| 
F|---------------|-----------------------|---------------------------\-----------| 
C|0--------------|-----------------------|----------X-X--X-X-X--X-X-X\-----------| 
G|0--------------|0-0-6-0-0-----0-0-6-5-6|0-0-6-0-0-X-X--X-X-X--X-X-X\(0-0-6-5-6)|  
C|0-let-ring-----|--------------------5-6|----------X-X--X-X-X--X-X-X\(------5-6)| 
                                      * *                                    * * 
Riff 4 
D|---------------------------------------------------------------------------------- 
A|----------------------------------------------------------------------------------- 
F|----------------------------------------------------------------------------------- 
C|6--6-6-6-7--7-7--7--7--6--6--3-3-3-3-1-1-1-1-1--6--6-6-6-7--7-7--7--7--6--6--3-3-3- 
G|4--4-4-4-5--5-5--5--5--6--6--3-3-3-3-1-1-1-1-1--4--4-4-4-5--5-5--5--5--6--6--3-3-3- 
C|-----------------------6--6--3-3-3-3-1-1-1-1-1-------------------------6--6--3-3-3- 
                               * * * * * * * * *                               * * * 
------| 
------| 
------| 
3-----| 
3-----| 
3--1-1| 
   * 
 
Riff 5 
D|-----------------------------------------| 
A|-----------------------------------------| 
F|-----------------------------------------| 
C|0--1-0--X-X-X-1-0--X-X-X-1-0--X-X-X-1-0-3| 
G|0--1-0--X-X-X-1-0--X-X-X-1-0--X-X-X-1-0-3| 
C|0--1-0--X-X-X-1-0--X-X-X-1-0--X-X-X-1-0-3| 
 
Riff 6 
F|---------------------| 
A|---------------------| 
D|---------------------| 
C|0--7--6--10-0-6-3-1-0| 
G|0--5--6--8--0-6-3-1-0| 
C|0-----6-----0-6-3-1-0| 
              * * * * 
 

    	
fixar
fixar inscrever-se

enviado porenviado por: anônimo
cifra enviadaCorrigida por: sem correções
logo top cifrasComente
ico música do artistaMúsicas deste artista
ico curtiuCurtiu?
ico destaqueDestaque
Petaxxon Comunicação Online

Cifras.com.br - Melhor e mais completo site de cifras e tablaturas do Brasil Mais de 1 milhão de acordes de músicas cadastradas desde 2003
As informações contidas no nosso site são colaborações de seus usuários e podem conter erros, sendo assim, não nos responsabilizamos sobre nenhuma destas.

close
menos
mais
close
Cor dos acordes:

Cor da letra:

close
Alinhar acordes a direita Alinhar acordes a esquerda Alinhar acordes em baixo Alinhar acordes no topo
close
  Mostrar todos os acordes Esconder acordes muito fáceis Esconder acordes fáceis Esconder acordes intermediários
redimensionar
glossário