Cifras e Tablaturas
Bruno e Marrone

Bruno e Marrone

Amor de Carnaval(intro.)

Compositor : (Bruno / Felipe)

Cifras Cancelar Versão de Impressão Print

Bruno e Marrone - Amor de Carnaval(intro.)

Tom: Em

  			 
E|-----------------------------------------------| 
A|-----------------------------------------------| 
D|-----------------------------------------------| Em 
G|-14-14--14---12-12--12---11-11--11---9-9--9---7| 
B|-----------------------------------------------| 
E|-14-14--14---12-12--12---10-10--10---9-9--9---7| 
 
E|---------------------------------------------| 
A|---------------------------------------------| 
D|---------------------------------------------| D 
G|-12-12--12---11-11--11---9-9--9---7-7--7---6-| 
B|---------------------------------------------| 
E|-12-12--12---10-10--10---9-9--9---7-7--7---5-| 

    	
fixar
fixar inscrever-se

enviado porenviado por: Gabriel Afram
cifra enviadaCorrigida por: sem correções
logo top cifrasComente
ico música do artistaMúsicas deste artista
ico curtiuCurtiu?
ico destaqueDestaque
Petaxxon Comunicação Online

Cifras.com.br - Melhor e mais completo site de cifras e tablaturas do Brasil Mais de 1 milhão de acordes de músicas cadastradas desde 2003
As informações contidas no nosso site são colaborações de seus usuários e podem conter erros, sendo assim, não nos responsabilizamos sobre nenhuma destas.

close
menos
mais
close
Cor dos acordes:

Cor da letra:

close
Alinhar acordes a direita Alinhar acordes a esquerda Alinhar acordes em baixo Alinhar acordes no topo
close
  Mostrar todos os acordes Esconder acordes muito fáceis Esconder acordes fáceis Esconder acordes intermediários
redimensionar
glossário