Cifras e Tablaturas
Kehlani

Kehlani

Again

Cifras Cancelar Versão de Impressão

Kehlani - Again

Tom:

  			Intro 
e|-----x-----x---|-----x------x---|-----x-------x---|--4--------------|----x------x-----| 
B|--4--x--4--x---|--2--x--2---x---|-----x-------x---|--5-5--5--4------|----x------x-----| 
G|--4--x--4--x---|--2--x--2---x---|--4--x---4---x---|--6-6--6--4------|-4--x---4--x-----| 
D|--6--x--6--x---|--2--x--2---x---|--6--x---6---x---|--6-6--6--6------|-6--x---6--x-----| 
A|-----x-----x---|--0--x--0---x---|--6--x---6---x---|--4-4--4--6------|-6--x---6--x-----| 
E|--4--x--4--x---|-----x------x---|--4--x---4---x---|--4--------------|-4--x---4--x-----| 

e|--4------------|-----x--------x-|-------x-------x-| 
B|--5-5---5--4---|-2---x---2----x-|----2--x---2---x-| 
G|--6-6---6--4---|-2---x---2----x-|----2--x---2---x-| 
D|--6-6---6--6---|-2---x---2----x-|----2--x---2---x-| 
A|--4-4---4--6---|-0---x---0----x-|--1----x---1---x-| 
E|--4------------|-----x--------x-|-------x-------x-| 

Verse 
e|-----x-----x---|-----x------x---|-----x-------x---|--4--------------|----x------x-----| 
B|--0--x--0--x---|--2--x--2---x---|-----x-------x---|--5-5--5--4------|----x------x-----| 
G|--1--x--1--x---|--2--x--2---x---|--4--x---4---x---|--6-6--6--4------|-4--x---4--x-----| 
D|--2--x--2--x---|--2--x--2---x---|--6--x---6---x---|--6-6--6--6------|-6--x---6--x-----| 
A|--2--x--2--x---|--0--x--0---x---|--6--x---6---x---|--4-4--4--6------|-6--x---6--x-----| 
E|-----------x---|-----x------x---|--4--x---4---x---|--4--------------|-4--x---4--x-----| 

Everytime we drew our lines, they grew legs and walked themselves down the road. Boundaries is my middle name. 

e|--4------------|-----x--------x-|-------x-------x-| 
B|--5-5---5--4---|-----x--------x-|----2--x---2---x-| 
G|--6-6---6--4---|-2---x---2----x-|----2--x---2---x-| 
D|--6-6---6--6---|-4---x---4----x-|----2--x---2---x-| 
A|--4-4---4--6---|-4---x---4----x-|--1----x---1---x-| 
E|--4------------|-2---x---2----x-|-------x-------x-| 

I give respect where it's asked or it's shown. 

Chorus 
e|-----x------x--|----x------x----|-------x---------|----x------------|-----x-----x-----| 
B|---5-x---4--x--|-0--x--2---x----|----5--x---4-----|-0--x--2---------|--5--x--4--x-----| 
G|---6-x---4--x--|-2--x--2---x----|----6--x---4-----|-2--x--2--4s2-1--|--6--x--4--x-----| 
D|---6-x---4--x--|-2--x--2---x----|----6--x---4-----|-2--x--2---------|--6--x--4--x-----| 
A|-4---x---2--x--|-1--x--0---x----|--4----x---2-----|-1--x--0---------|-4---x--2--x-----| 
E|-----x------x--|----x------x----|-------x---------|----x------------|-----x-----x-----| 

Something bout our exchange, it's a fight to act like you weren't in mind or mine. Never want to complain, 

e|---x-----------|-4s7--7-5-4-----|---2--x---2--x---| 
B|-0-x---2-------|-4----7-5-4-----|------x------x---| 
G|-2-x---2-------|-4--------------|------x------x---| 
D|-2-x---2-------|----------------|------x------x---| 
A|-1-x---0-------|----------------|------x------x---| 
E|---x-----------|----------------|------x------x---| 

love you with your wings babe, these are your skies... 

e|-----x------x--|----x------x----|-------x---------|----x------------|-----x-----x-----| 
B|---5-x---4--x--|-0--x--2---x----|----5--x---4-----|-0--x--2---------|--5--x--4--x-----| 
G|---6-x---4--x--|-2--x--2---x----|----6--x---4-----|-2--x--2--4s2-1--|--6--x--4--x-----| 
D|---6-x---4--x--|-2--x--2---x----|----6--x---4-----|-2--x--2---------|--6--x--4--x-----| 
A|-4---x---2--x--|-1--x--0---x----|--4----x---2-----|-1--x--0---------|-4---x--2--x-----| 
E|-----x------x--|----x------x----|-------x---------|----x------------|-----x-----x-----| 

But then there was the blood from your heart on my hands again, though I swore I washed it off in the waves. 

e|---x-----------|-4s7--7-5-4-----|---2--x---2--x---| 
B|-0-x---2-------|-4----7-5-4-----|------x------x---| 
G|-2-x---2-------|-4--------------|------x------x---| 
D|-2-x---2-------|----------------|------x------x---| 
A|-1-x---0-------|----------------|------x------x---| 
E|---x-----------|----------------|------x------x---| 

And I wish I was sorry, damn I wish I was sorry that I don't know how to stay away, stay away... 

Verse 
e|-----x-----x---|-----x------x---|-----x-------x---|--4--------------|----x------x-----| 
B|--0--x--0--x---|--2--x--2---x---|-----x-------x---|--5-5--5--4------|----x------x-----| 
G|--1--x--1--x---|--2--x--2---x---|--4--x---4---x---|--6-6--6--4------|-4--x---4--x-----| 
D|--2--x--2--x---|--2--x--2---x---|--6--x---6---x---|--6-6--6--6------|-6--x---6--x-----| 
A|--2--x--2--x---|--0--x--0---x---|--6--x---6---x---|--4-4--4--6------|-6--x---6--x-----| 
E|-----------x---|-----x------x---|--4--x---4---x---|--4--------------|-4--x---4--x-----| 

e|--4------------|-----x--------x-|-------x-------x-| 
B|--5-5---5--4---|-----x--------x-|----2--x---2---x-| 
G|--6-6---6--4---|-2---x---2----x-|----2--x---2---x-| 
D|--6-6---6--6---|-4---x---4----x-|----2--x---2---x-| 
A|--4-4---4--6---|-4---x---4----x-|--1----x---1---x-| 
E|--4------------|-2---x---2----x-|-------x-------x-| 

Chorus 
e|-----x------x--|----x------x----|-------x---------|----x------------|-----x-----x-----| 
B|---5-x---4--x--|-0--x--2---x----|----5--x---4-----|-0--x--2---------|--5--x--4--x-----| 
G|---6-x---4--x--|-2--x--2---x----|----6--x---4-----|-2--x--2--4s2-1--|--6--x--4--x-----| 
D|---6-x---4--x--|-2--x--2---x----|----6--x---4-----|-2--x--2---------|--6--x--4--x-----| 
A|-4---x---2--x--|-1--x--0---x----|--4----x---2-----|-1--x--0---------|-4---x--2--x-----| 
E|-----x------x--|----x------x----|-------x---------|----x------------|-----x-----x-----| 

e|---x-----------|-4s7--7-5-4-----|---2--x---2--x---| 
B|-0-x---2-------|-4----7-5-4-----|------x------x---| 
G|-2-x---2-------|-4--------------|------x------x---| 
D|-2-x---2-------|----------------|------x------x---| 
A|-1-x---0-------|----------------|------x------x---| 
E|---x-----------|----------------|------x------x---| 

e|-----x------x--|----x------x----|-------x---------|----x------------|-----x-----x-----| 
B|---5-x---4--x--|-0--x--2---x----|----5--x---4-----|-0--x--2---------|--5--x--4--x-----| 
G|---6-x---4--x--|-2--x--2---x----|----6--x---4-----|-2--x--2--4s2-1--|--6--x--4--x-----| 
D|---6-x---4--x--|-2--x--2---x----|----6--x---4-----|-2--x--2---------|--6--x--4--x-----| 
A|-4---x---2--x--|-1--x--0---x----|--4----x---2-----|-1--x--0---------|-4---x--2--x-----| 
E|-----x------x--|----x------x----|-------x---------|----x------------|-----x-----x-----| 

e|---x-----------|-4s7--7-5-4-----|---2--x---2--x---| 
B|-0-x---2-------|-4----7-5-4-----|------x------x---| 
G|-2-x---2-------|-4--------------|------x------x---| 
D|-2-x---2-------|----------------|------x------x---| 
A|-1-x---0-------|----------------|------x------x---| 
E|---x-----------|----------------|------x------x---| 


************************************ 

 x   Thumb slap 
 s   Slide 

************************************ 
    	
fixar
fixar inscrever-se

enviado porenviado por: gustsilva
cifra enviadaCorrigida por: sem correções
logo top cifrasComente
ico música do artistaMúsicas deste artista
ico curtiuCurtiu?
ico destaqueDestaque
Petaxxon Comunicação Online

Cifras.com.br - Melhor e mais completo site de cifras e tablaturas do Brasil Mais de 1 milhão de acordes de músicas cadastradas desde 2003
As informações contidas no nosso site são colaborações de seus usuários e podem conter erros, sendo assim, não nos responsabilizamos sobre nenhuma destas.

close
menos
mais
close
Cor dos acordes:

Cor da letra:

close
Alinhar acordes a direita Alinhar acordes a esquerda Alinhar acordes em baixo Alinhar acordes no topo
close
  Mostrar todos os acordes Esconder acordes muito fáceis Esconder acordes fáceis Esconder acordes intermediários
redimensionar
glossário