Cifras e Tablaturas
Lulu Santos

Lulu Santos

Toda Forma de AmorTablatura Verificada

Compositor : (Lulu Santos / Ronaldo Bastos)

Cifras Cancelar Versão de Impressão

Lulu Santos - Toda Forma de Amor

Tom: A

  			
Intro: (A F#m E7/11 D) 

e|-----------------------------------------------------------------| 
B|-------------------2-------------------------------2-------------| 
G|-----2-2h4~~-----2---4-2h4p2---------2-2h4~~-----2---4-2h4p2-----| 
D|-2h4---------2h4-------------4-2-2h4---------2h4-------------4-2-| 
A|-----------------------------------------------------------------| 
E|-----------------------------------------------------------------| 

e|----------------------------| 
B|------3-2-----0---2---3---2-| 
G|----2-----2-----2---2---2---| 
D|--0---------0---------------| 
A|----------------------------| 
E|----------------------------| 

Verso: 

A 
e|---------------------------------| 
B|---------------------------------| 
G|-2-2-4-4-2-2-4-4-2-2-4-4-2-2-4-4-| 
D|-2-2-4-4-2-2-4-4-2-2-4-4-2-2-4-4-| 
A|---------------------------------| 
E|---------------------------------| 

F#m 
e|-------------------------------| 
B|-------------------------------| 
G|----2---1---2------2---1---2---| 
D|--2---2---2---2--2---2---2---2-| 
A|-------------------------------| 
E|-------------------------------| 

E 
e|-------0---------0-----| 
B|-----0---0-----0---0---| 
G|---1-------1-1-------1-| 
D|-----------------------| 
A|-----------------------| 
E|-0---------------------| 

D 
e|----------------------------| 
B|------3-2-----0---2---3---2-| 
G|----2-----2-----2---2---2---| 
D|--0---------0---------------| 
A|----------------------------| 
E|----------------------------| 

A5+ 
e|---------------------------------| 
B|---------------------------------| 
G|-2-2-4-4-2-2-4-4-2-2-4-4-2-2-4-4-| 
D|-2-2-4-4-2-2-4-4-2-2-4-4-2-2-4-4-| 
A|---------------------------------| 
E|---------------------------------| 

Solo: 

e|---------------------------------------------------------| 
B|---------------------------------------------------------| 
G|-16b18r16p14-16b18r16b18~-16b18r16p14h16p14h16p14h16p14--| 
D|---------------------------------------------------------| 
A|---------------------------------------------------------| 
E|---------------------------------------------------------| 

e|-----------------------------------------------17-17-17h19p17----17-| 
B|--------------------------------------17-19-17----------------19----| 
G|--14-14----14-16----14-14-16-14-16b18-------------------------------| 
D|16-------16-------16------------------------------------------------| 
A|--------------------------------------------------------------------| 
E|--------------------------------------------------------------------| 

e|-19-19b21-19b21-19b21-17-19---------------------------------------| 
B|---------------------------17-19-14-17-17-----17-----17-----------| 
G|---------------------------------------16b18--(b18)--(b18)r16p14--| 
D|------------------------------------------------------------------| 
A|------------------------------------------------------------------| 
E|------------------------------------------------------------------| 

e|-------------------------------17-| 
B|-------------15-14----------------| 
G|----14-16-14-------16-14-16b18----| 
D|-16-------------------------------| 
A|----------------------------------| 
E|----------------------------------| 

A 
 Eu não pedi pra nascer 
F#m 
   Eu não nasci pra perder 
E                              D 
 Nem vou sobrar de vítima das circunstâncias 

A 
 Eu tô plugado na vida 
F#m 
   Eu tô curando a ferida 
E                         D          (A F#m E7/11 D) 
 Às vezes eu me sinto uma mola encolhida 

A 
 Você é bem como eu 
F#m 
   Conhece o que é ser assim 
E                              D 
 Só que dessa história ninguém sabe o fim 


A 
 Você não leva pra casa 
F#m 
   E só traz o que quer 
E                         D 
 Eu sou teu homem, você é minha mulher 

A 
 E a gente vive junto 
A5+ 
   E a gente se dá bem 
        D 
Não desejamos mal 
  Dm       E7/11 
A quase ninguém 

A 
 E a gente vai à luta 
A5+ 
   E conhece a dor 
       D 
Consideramos justa 
Dm  E7/11        (A F#m E7/11 D) 
Toda forma de amor 

A                           D 
 Eu não pedi... até ...das circunstâncias 

A                        Dm  E7/11      (A F#m E7/11 D) 
 Você não leva... até ...toda forma de amor 

    	
fixar
fixar inscrever-se

enviado porenviado por: Math.avs
cifra enviadaCorrigida por: Acelot
logo top cifrasComente
ico música do artistaMúsicas deste artista
ico curtiuCurtiu?
ico destaqueDestaque
Petaxxon Comunicação Online

Cifras.com.br - Melhor e mais completo site de cifras e tablaturas do Brasil Mais de 1 milhão de acordes de músicas cadastradas desde 2003
As informações contidas no nosso site são colaborações de seus usuários e podem conter erros, sendo assim, não nos responsabilizamos sobre nenhuma destas.

close
menos
mais
close
Cor dos acordes:

Cor da letra:

close
Alinhar acordes a direita Alinhar acordes a esquerda Alinhar acordes em baixo Alinhar acordes no topo
close
  Mostrar todos os acordes Esconder acordes muito fáceis Esconder acordes fáceis Esconder acordes intermediários
redimensionar
glossário