Cifras e Tablaturas
Megadeth

Megadeth

Symphony Of Destruction Tablatura Verificada

Ano: 1992
Album : Warchest Box Set (4CDs/1DVD)
Compositor : (Dave Mustaine)

Cifras Cancelar Versão de Impressão
cifras

Megadeth - Symphony Of Destruction

fixar na tela  
Exibindo: vídeo-aula ver clipes redimensionar

Tom:

  
Intro: 

e|-----------------------------| 
B|-----------------------------| 
G|-----------------------------| 
D|-----------------------------| 
A|--3-2-2--3-2-2--3-5-2--3-2-2-| 
E|--1-0-0--1-0-0--1-3-0--1-0-0-| 

Part A: 


e|---------------------| 
B|---------------------| 
G|---------------------| 
D|---------------------| 
A|-3-2-2--3-5-2--3-2-2-| 
E|-1-0-0--1-3-0--1-0-0-| (3x) 

Part B: 
e|------------------------------------------------------------------| 
B|------------------------------------------------------------------| 
G|------------------------------------------------------------------| 
D|----7---6---5----5h7p5---7---6---5--5h7p5----7---6----5----5h7p5--| 
A|----7---6---5------------7---6---5-----------7---6----5-----------| 
E|0-0---0---0---0------------0---0-----------0---0----0---0---------| 

e|--------------------| 
B|--------------------| 
G|--------------------| 
D|-7---6---5---5h7p7--| 
A|-7---6---5----------| 
E|---0---0---0--------| 


Pre-Chorus: 

e|----------------------| 
B|----------------------| 
G|----------------------| 
D|----------------------| 
A|-----5-2-----------2--| 
E|-0-0-----5-4-3-2-1-0--| 

Chorus: 

e|-------------------------------------------------------| 
B|-------------------------------------------------------| 
G|-------------------------------------------------------| 
D|-9-----8-----7-----6----------5-----4------7---5p4-----| 
A|---7-----7-----7-----7----3-3---3-3---3-3--5-------5---| 
E|-----0-----0-----0-----0-----------------------------7-| 

Part A: 


e|---------------------| 
B|---------------------| 
G|---------------------| 
D|---------------------| 
A|-3-2-2--3-5-2--3-2-2-| 
E|-1-0-0--1-3-0--1-0-0-| (3x) 

Part B: 
e|------------------------------------------------------------------| 
B|------------------------------------------------------------------| 
G|------------------------------------------------------------------| 
D|----7---6---5----5h7p5---7---6---5--5h7p5----7---6----5----5h7p5--| 
A|----7---6---5------------7---6---5-----------7---6----5-----------| 
E|0-0---0---0---0------------0---0-----------0---0----0---0---------| 

e|--------------------| 
B|--------------------| 
G|--------------------| 
D|-7---6---5---5h7p7--| 
A|-7---6---5----------| 
E|---0---0---0--------| 


Pre-Chorus: 

e|----------------------| 
B|----------------------| 
G|----------------------| 
D|----------------------| 
A|-----5-2-----------2--| 
E|-0-0-----5-4-3-2-1-0--| 

Chorus: 

e|-------------------------------------------------------| 
B|-------------------------------------------------------| 
G|-------------------------------------------------------| 
D|-9-----8-----7-----6----------5-----4------7---5p4-----| 
A|---7-----7-----7-----7----3-3---3-3---3-3--5-------5---| 
E|-----0-----0-----0-----0-----------------------------7-| 

e|------------------| 
B|------------------| 
G|------------------| 
D|------5-----4-----| 
A|--3-3---3-3---3-3-| 
E|------------------| 

Solo: 

e|------------------| 
B|------------------| 
G|------------------| 
D|--7---6---5-------| 
A|--7---6---5-------| 
E|----0---0---0-0-0-|(4x) 

e|--------------------------------------------------------------------| 
B|----------------------------5---------------------------------------| 
G|-7/9-9-9-9-9-9-9/7/4/6-6b7--7b9--3b4--0-2-0-2b4r2--2b4r2p0----------| 
D|------------------------------------------------------------2-0-2~~-| 
A|--------------------------------------------------------------------| 
E|--------------------------------------------------------------------| 

e|--------------------8-12----8-12/14p12----12h14h17p14p12--| 
B|-----------------10------10------------13-----------------| 
G|---9-11----9-11-------------------------------------------| 
D|10------10------------------------------------------------| 
A|----------------------------------------------------------| 
E|----------------------------------------------------------| 

e|----17/20/17/20p17p14---------| 
B|-13-------------------17-13~~-| 
G|------------------------------| 
D|------------------------------| 
A|------------------------------| 
E|------------------------------| 

e|------------------------------------------------------| 
B|-12p10----10-12p10----10--15p10----15p10----14p10~~~--| 
G|-------12----------12-----------12-------12-----------| 
D|------------------------------------------------------| 
A|------------------------------------------------------| 
E|------------------------------------------------------| 

e|-12p10----10-12p10----10--15p10----15p10----14p10--| 
B|-------12----------12-----------12-------12--------| 
G|---------------------------------------------------| 
D|---------------------------------------------------| 
A|---------------------------------------------------| 
E|---------------------------------------------------| 

e|-15p10----10--19p15----15--22p19----19--| 
B|-------12-----------15-----------20-----| 
G|----------------------------------------| 
D|----------------------------------------| 
A|----------------------------------------| 
E|----------------------------------------| 

e|-15p10---------------------------------------| 
B|-------12-----15p12--------------------------| 
G|----------12--------12----------------14b16--| 
D|-----------------------12h14p12/11-12--------| 
A|---------------------------------------------| 
E|---------------------------------------------| 

e|-----------------------------------------------12--------| 
B|----------------12-13p12-----------------12-13----13h12--| 
G|-16p12----12-15-----------15p12----12-15-----------------| 
D|-------14-----------------------14-----------------------| 
A|---------------------------------------------------------| 
E|---------------------------------------------------------| 

e|-----------------------12---------------------------| 
B|--------------------------15-12---------------------| 
G|-15p12----12-14-15-16-----------15-14-12----12b14\--| 
D|-------14--------------------------------14---------| 
A|----------------------------------------------------| 
E|----------------------------------------------------| 

e|-12--------------12-------------12-------------12--------------| 
B|----15-12-15b17-----15-12----------15-12----------15-12-15-----| 
G|--------------------------14b16----------14b16----------14b16--| 
D|---------------------------------------------------------------| 
A|---------------------------------------------------------------| 
E|---------------------------------------------------------------| 

  

top 5 | megadeth
top thrash metal
Outras músicas do artista letras do(a) Megadeth
Top cifras »Top artistas »
Petaxxon Comunicação Online
Cifras.com.br - Melhor e mais completo site de cifras e tablaturas do Brasil
Mais de 1 milhão de acordes de músicas cadastradas desde 2003
As informações contidas no nosso site são colaborações de seus usuários e podem conter erros, sendo assim, não nos responsabilizamos sobre nenhuma destas.
close
menos
mais
close
Cor dos acordes:

Cor da letra:

 

save
close
close
 
redimensionar