Cifras e Tablaturas
CPM 22

CPM 22

Contagem Regressiva

Ano: 2005
Album : Felicidade Instantânea

Cifras Cancelar Versão de Impressão Print

CPM 22 - Contagem Regressiva

Tom: C#

  			OBS: Aonde tiver "Guitarra 1" e "Guitarra 2", elas são tocadas juntas..


C#				 D#	  F#
   Não pensei que um um dia eu teria que...me esconder pra viver 

C#			      D#       F#	       C#
   Não pensei que um dia chegaria ver...o que vejo na TV 

G#   	  F#/F		  F#		C#
   Quanto tempo mais nós temos eu não sei.

G#        F#/F		  F#
   o que for pra ser vai ser! 

C#	 		     D#	        F#
   Acordei vi que não devia mais temer...Tenho que sobreviver. 

C#				 D#	    F#		      C#
   Já cansei de ficar esperando por ninguém...Com medo de morrer
 
G#   	  F#/F		  F#		C#
   Quanto tempo mais nós temos eu não sei.

G#        F#/F		  F#
   o que for pra ser vai ser!   Ouuiieeehh 


-Guitrra 1(base)
  F#      (2x)
e-------------|---------------|
B-------------|---------------|
G-------------|-8-8-6-8-6-8-6-|(repete isto tudo 3x) 
D-4-4-4-4-4-4-|---------------|
A-4-4-4-4-4-4-|-6-6-4-6-4-6-4-|
E-2-2-2-2-2-2-|---------------|


  F#      
e-------------|------------|
B-------------|------------|
G-------------|-8-8-6-8-6-8|(e a 4ª termina assim) 
D-4-4-4-4-4-4-|------------|
A-4-4-4-4-4-4-|-6-6-4-6-4-6|
E-2-2-2-2-2-2-|------------|



-Guitarra 2(solo)
  F#      (2x)
e-------------------|---------------|
B-------------------|---------------|
G-11-11-11-11-11-11-|-8-8-6-8-6-8-6-|(repete isso tudo 3x) 
D-------------------|---------------|
A-9--9--9--9--9--9--|---------------|
E-------------------|---------------|



  F#      
e-------------------|------------|
B-------------------|------------|
G-11-11-11-11-11-11-|-8-8-6-8-6-8|(e a 4ª termina assim) 
D-------------------|------------|
A-9--9--9--9--9--9--|------------|
E-------------------|------------|


Que for pra ser vai ser..


Solo de wha wha

-Guitarra 1(base)
(C# G# F#)4x


-Guitarra 2(solo)

 
e-------------|
B-14-13-14-16-|
G-------------|(repete isto 3x) 
D-11-10-11-13-|
A-------------|
E-------------|

e---------|
B-14-13-9-|
G---------|(na 4ª faz assim) 
D-11-10-6-|
A---------|
E---------|


  C#  
Aaaahhhh

G#   	  F#/F		  F#		C#
   Quanto tempo mais nós temos eu não sei

G#   	  F#/F		  F#		C#
   Quanto tempo que eu também disperdicei


G#   	  F#/F		  F#		C#
   Quanto tempo mais nós temos eu não sei


Final
(C# G# F#) 

_______________________________________________________
Contribuição: Hermano Moreno Santos Araújo([email protected])
    	
fixar
fixar inscrever-se

enviado porenviado por: anônimo
cifra enviadaCorrigida por: sem correções
afinação

Toque com outra afinação
Modifique a corda abaixo ou utilize um dos presets.

Dacorde
Aacorde
Eacorde
braço violão
Gacorde
Bacorde
Eacorde
logo top cifrasComente
ico música do artistaMúsicas deste artista
ico curtiuCurtiu?
ico destaqueDestaque
Petaxxon Comunicação Online

Cifras.com.br - Melhor e mais completo site de cifras e tablaturas do Brasil Mais de 1 milhão de acordes de músicas cadastradas desde 2003
As informações contidas no nosso site são colaborações de seus usuários e podem conter erros, sendo assim, não nos responsabilizamos sobre nenhuma destas.

close
menos
mais
close
Cor dos acordes:

Cor da letra:

close
Alinhar acordes a direita Alinhar acordes a esquerda Alinhar acordes em baixo Alinhar acordes no topo
close
  Mostrar todos os acordes Esconder acordes muito fáceis Esconder acordes fáceis Esconder acordes intermediários
redimensionar
glossário