Cifras e Tablaturas
Legião Urbana

Legião Urbana

Índios (base)

Cifras Cancelar Versão de Impressão Print

Legião Urbana - Índios (base)

Tom: Am

  			Essa é a base de toda a musica com exceção do Refrão. É tocada sob os acordes Am C D Bm Em: 
 
             Am          C              D 
E|----------------------------------------------------------| 
B|-------1-----1-----1-----1------3-----3-------3------3----| 
G|-------2-----2-----0-----0------0-----0-------0------0----| 
D|-------2-----0-----2-----2------4-----4-------4------4----| 
A|----0-----2-----3------------5-------------5--------------| 
E|------------------------3------------5--------------5-----| 
 
Continuação: 
 
          Bm                               Em 
E|----------------------------------------------------------| 
B|------3-----3------3------3-------0------0------0-----0---| 
G|------4-----4------4------4-------0------0------0-----0---| 
D|------4-----4------4------4-------2------2------2-----2---| 
A|---2------------2----------------------2-------------2----| 
E|----------2-------------2-------0-------------0-----------| 
 

    	

enviado porenviado por: tozezinho
cifra enviadaCorrigida por: sem correções
logo top cifrasComente
ico música do artistaMúsicas deste artista
ico curtiuCurtiu?
ico destaqueDestaque
Petaxxon Comunicação Online

Cifras.com.br - Melhor e mais completo site de cifras e tablaturas do Brasil Mais de 1 milhão de acordes de músicas cadastradas desde 2003
As informações contidas no nosso site são colaborações de seus usuários e podem conter erros, sendo assim, não nos responsabilizamos sobre nenhuma destas.

close
menos
mais
close
Cor dos acordes:

Cor da letra:

close
Alinhar acordes a direita Alinhar acordes a esquerda Alinhar acordes em baixo Alinhar acordes no topo
close
  Mostrar todos os acordes Esconder acordes muito fáceis Esconder acordes fáceis Esconder acordes intermediários
redimensionar
glossário